Oops, an error
Loading. Please wait.

Look Where We Are Bass Tab

684 views 1 this week
no commentswrite comment
1 2 3 4 5
3 more votes to show rating
add to favorites
launch autoscroll
font size
0
reset
guitar tuner
Autoscroll
slow
fast
+/-
esc
set tempo
stop
Help us to improve Ultimate-Guitar.com Take our survey!
×
Author
Difficulty
Tuning
novice
D A D G B E
Hoobastank: Look Where We Are
Album: Every Man For Himself (2006)
/=slide


INTRO: (follow hits)
G|--------------|
d|--------------|
A|--------------|
D|--0--0--0--0--| |--12/0--|

G|----------|X4|
d|----------|X4|
A|----------|X4|
D|-00000000-|X4|


VERSE:
G|----------|----------|----------|----------|X2|
d|----------|----------|----------|----------|X2|
A|----------|----------|-11111111-|-33333333-|X2|
D|-00000000-|-00000000-|----------|----------|X2|


PRE-CHORUS:
G|----------|----------|-------|
d|----------|----------|-------|
A|-11111111-|-33333333-|-3/12--|
D|----------|----------|-------|


CHORUS:
G|-------|-------|-------|------------|
d|-------|-------|-------|------------|
A|-------|-3-3-3-|-------|------------|
D|-0-0-0-|-------|-5-5-5-|-8-8--3-3-3-|

G|-------|-------|-------|------------|
d|-------|-------|-------|------------|
A|-------|-3-3-3-|-------|------------|
D|-0-0-0-|-------|-5-5-5-|-8-8--10-10-|


FAST BRIDGE:
G|----------|----------|----------|----------|X2|
d|----------|----------|----------|----------|X2|
A|----------|----------|-11111111-|-33333333-|X2|
D|-00000000-|-00000000-|----------|----------|X2|


CHORUS (2X)


ENDS ON: (follow hits)
G|--------------|
d|--------------|
A|--------------|
D|--0--0--0--0--|
Suggest correction
Give kudos to tab author, rate the tab!
1 2 3 4 5
comments
print report bad tab
guest
You may want to rate the tab now too:
select rating
Wanna post a correction for this tab? Suggest correction