Oops, an error
Loading. Please wait.

More Than A Memory Tab

version 1
version 1

Whole song

Interactive

23,131 views 9 this week
16 commentsread comments
1 2 3 4 5
excellent!
x 15
add to favorites
launch autoscroll
font size
0
reset
how to read this tab
guitar tuner
Tab Pro tools
  • play this tab
  • loop segment
  • change instrument
  • show fretboard
  • metronome
×
Best way to learn
"More Than A Memory"
Autoscroll
slow
fast
+/-
esc
set tempo
stop
Contributor
Difficulty
intermediate
Band:Hoobastank
Song:More Than a Memory
Album:Every Man For Himself           RATE/COMMENT
Tuning:Standard

The only thing you have to Figure out in this tab is the struming and your all set.

There is a 2nd guitar in this song but its pretty obvious when it comes in and what its playing

*Note*-The first cord of the chorus is actually started on the word so. You just play 
last cord untill then

*UPDATE*-I changed the intro just a little bit, and a special thanks to jaames

Intro
e|-------7-----7h8p7-5h7p5--------0-0-00-3-333-3-333------|
b|---------0---------------5--------1-11-3-333-3-333------|
g|-----5-----5---------------7------0-00-0-000-0-000------|  x2
d|---7---------------------------2--2-22-0-000-0-000------|
a|-0---------------------------3----3-33-2-222-2-222------|
E|---------------------------------------3-333-3-333------|

Pre Verse
e|----0-----0-----0-----0------|
b|-----3-----3-----3-----3-----|
g|---2--2--2--2--2--2--2--2----|  x2
d|--2-----2-----2-----2--------|
a|-0-----0-----0-----0---------|
E|-----------------------------|

Verse
e|-0-------------------------------x--------|
B|-1-------------------------------0--------|
G|-2-------------------------------2--------|
D|-2-------------------------------3--------|
A|-0-------------------------------3--------|
E|-0-------------------------------1--------|
   I've become tired Of Wasting my time
e|-x-------------------------------0--------|
B|-0-------------------------------1--------|
G|-2-------------------------------2--------|
D|-3-------------------------------2--------|
A|-3-------------------------------0--------|
E|-1-------------------------------0--------|
   Thinkin' bout choices That I've made
e|-0--------------------------------------x----------|
B|-1--------------------------------------0----------|
G|-2--------------------------------------2----------|
D|-2--------------------------------------3----------|
A|-0--------------------------------------3----------|
E|-0--------------------------------------1----------|
   Cuz i can't move forward While looking behind
e|-x---------------------------------0-----------|
B|-0----------------------------------3----------|
G|-2--------------------------------2--2-x4------|
D|-3-------------------------------2-------------|
A|-3------------------------------0--------------|
E|-1---------------------------------------------|
   The only thing I can do now is change the way
e|--------x----------|
B|--------0----------|
G|--------2----------|
D|--------3----------|
A|--------3----------|
E|--------1----------|
   That I use to be
e|-x------0-------------------x---------3---|
B|-0-------3------------------0---------3---|
G|-2-----2--2-x4--------------2---------0---|
D|-3----2---------------------3---------0---|
A|-3---0----------------------3---------2---|
E|-1--------------------------1---------3---|
   Cuz now it's seems Crystal clear to me

e|-0------------------------x-----------------------|
B|-1------------------------6-----------------------|
G|-0------------------------7-----------------------|
D|-2------------------------8-----------------------|
A|-3------------------------8-----------------------|
E|-0------------------------6-----------------------|


Chorus
e|-0------------------x-----------x-----3---|
B|-1------------------0-----------3-----3---|
G|-2------------------2-----------2-----0---|
D|-2------------------3-----------0-----0---|
A|-0------------------3-----------0-----2---|
E|-0------------------1-----------x-----3---|
   Cuz you're so much more Than a memory
e|-0------------------x-----------x-----3---|
B|-1------------------0-----------3-----3---|
G|-2------------------2-----------2-----0---|
D|-2------------------3-----------0-----0---|
A|-0------------------3-----------0-----2---|
E|-0------------------1-----------x-----3---|
   Cuz you're so much more Than a memory

e|----0-----0-----0-----0------|
b|-----3-----3-----3-----3-----|
g|---2--2--2--2--2--2--2--2----|
d|--2-----2-----2-----2--------|
a|-0-----0-----0-----0---------|
E|-----------------------------|

Verse
e|-0-----------------------------x--------|
B|-1-----------------------------0--------|
G|-2-----------------------------2--------|
D|-2-----------------------------3--------|
A|-0-----------------------------3--------|
E|-0-----------------------------1--------|
   It wasn't fair For me just to go
e|-x--------------------------------0--------|
B|-0--------------------------------1--------|
G|-2--------------------------------2--------|
D|-3--------------------------------2--------|
A|-3--------------------------------0--------|
E|-1--------------------------------0--------|
   Act like I knew what you've been though
e|-0---------------------------------x----------|
B|-1---------------------------------0----------|
G|-2---------------------------------2----------|
D|-2---------------------------------3----------|
A|-0---------------------------------3----------|
E|-0---------------------------------1----------|
   Cuz I wasn't there And I'll never know
e|-x----------------------------------0---------------x-----------|
B|-0-----------------------------------3--------------0-----------|
G|-2---------------------------------2--2-x4----------2-----------|
D|-3--------------------------------2-----------------3-----------|
A|-3-------------------------------0------------------3-----------|
E|-1--------------------------------------------------1-----------|
   Couldn't see from your point of view but I'm doing all I can
e|-x------0--------------x----3-----0-------x----------|
B|-0-------3-------------0----3-----1-------6----------|
G|-2-----2--2-x4---------2----0-----0-------7----------|
D|-3----2----------------3----0-----2-------8----------|
A|-3---0-----------------3----2-----3-------8----------|
E|-1---------------------1----3-----0-------6----------|
   For you to see that I understand, that I understand

Chorus
e|-0------------------x-----------x-----3---|
B|-1------------------0-----------3-----3---|
G|-2------------------2-----------2-----0---|
D|-2------------------3-----------0-----0---|
A|-0------------------3-----------0-----2---|
E|-0------------------1-----------x-----3---|
   Cuz you're so much more Than a memory
e|-0------------------x-----------x-----3---|
B|-1------------------0-----------3-----3---|
G|-2------------------2-----------2-----0---|
D|-2------------------3-----------0-----0---|
A|-0------------------3-----------0-----2---|
E|-0------------------1-----------x-----3---|
   Cuz you're so much more Than a memory
e|-0-----------------x------------x-----------3-|
B|-1-----------------0------------3-----------3-|
G|-2-----------------2------------2-----------0-|
D|-2-----------------3------------0-----------0-|
A|-0-----------------3------------0-----------2-|
E|-0-----------------1------------x-----------3-|
   So don't close my door On what still can be
e|-0------------------x-----------x-----3---|
B|-1------------------0-----------3-----3---|
G|-2------------------2-----------2-----0---|
D|-2------------------3-----------0-----0---|
A|-0------------------3-----------0-----2---|
E|-0------------------1-----------x-----3---|
   Cuz you're so much more than a memory

e|----0-----0-----0-----0-----x-|
b|-----3-----3-----3-----3----0-|
g|---2--2--2--2--2--2--2--2---2-|  x2
d|--2-----2-----2-----2-------3-|
a|-0-----0-----0-----0--------3-|
E|----------------------------1-|


Bridge
e|----0------------------x------------|
b|-----3-----------------0------------|
g|---2--2-x4-------------2------------|
d|--2--------------------3------------|
a|-0---------------------3------------|
E|-----------------------1------------|
   Please don't go cuz I finally know
e|-x-----------0---------------x-------------3-----------|
B|-0------------3--------------0-------------3-----------|
G|-2----------2--2-x4----------2-------------0-----------|
D|-3---------2-----------------3-------------0-----------|
A|-3--------0------------------3-------------2-----------|
E|-1---------------------------1-------------3-----------|
   That the past is gone and I was wrong and i was wrong

Chorus
e|-0------------------x-----------x-----3---|
B|-1------------------0-----------3-----3---|
G|-2------------------2-----------2-----0---|
D|-2------------------3-----------0-----0---|
A|-0------------------3-----------0-----2---|
E|-0------------------1-----------x-----3---|
   Cuz you're so much more Than a memory
e|-0------------------x-----------x-----3---|
B|-1------------------0-----------3-----3---|
G|-2------------------2-----------2-----0---|
D|-2------------------3-----------0-----0---|
A|-0------------------3-----------0-----2---|
E|-0------------------1-----------x-----3---|
   Cuz you're so much more Than a memory
e|-0-----------------x------------x------------3--|
B|-1-----------------0------------3------------3--|
G|-2-----------------2------------2------------0--|
D|-2-----------------3------------0------------0--|
A|-0-----------------3------------0------------2--|
E|-0-----------------1------------x------------3--|
   So don't close my door On what still can be
e|-0------------------x-----------x-----3---|
B|-1------------------0-----------3-----3---|
G|-2------------------2-----------2-----0---|
D|-2------------------3-----------0-----0---|
A|-0------------------3-----------0-----2---|
E|-0------------------1-----------x-----3---|
   Cuz you're so much more than a memory

e|-0--------x--------0--------x----3---------|
b|-1--------x--------1--------3----3---------|
g|-2--------0--------0--------2----0---------|
d|-2--------2--------2--------0----0---------|
a|-0--------2--------3--------0----2---------|
E|-0--------0--------0--------x----3---------|

e|-0---------------------x-------------|
b|-1---------------------x-------------|
g|-2---------------------0-------------|
d|-2---------------------2-------------|
a|-0---------------------2-------------|
E|-0---------------------0-------------|
   Please don't go cuz I finally know
e|-x--------0----------------x---------3----|
B|-x--------1----------------3---------3----|
G|-0--------0----------------2---------0----|
D|-2--------2----------------0---------0----|
A|-2--------3----------------0---------2----|
E|-0--------0----------------x---------3----|
   That the past is gone and I was wrong
e|-0---------------------x-------------|
b|-1---------------------x-------------|
g|-2---------------------0-------------|
d|-2---------------------2-------------|
a|-0---------------------2-------------|
E|-0---------------------0-------------|
   Please don't go cuz I finally know
e|-x--------0----------------x-----------3-----------|
B|-x--------1----------------3-----------3-----------|
G|-0--------0----------------2-----------0-----------|
D|-2--------2----------------0-----------0-----------|
A|-2--------3----------------0-----------2-----------|
E|-0--------0----------------x-----------3-----------|
   That the past is gone and I was wrong I was wrong

e|-0--------x--------0--------x----3---------|
b|-1--------x--------1--------3----3---------|
g|-2--------0--------0--------2----0---------| x4
d|-2--------2--------2--------0----0---------|
a|-0--------2--------3--------0----2---------|
E|-0--------0--------0--------x----3---------|
   OOING!!! Hell YEAH!


Outro
e|-------7-----7h8p7-5h7p5--------0-0-00-3-333-3-333------|
b|---------0---------------5--------1-11-3-333-3-333------|
g|-----5-----5---------------7------0-00-0-000-0-000------|  x9
d|---7---------------------------2--2-22-0-000-0-000------|
a|-0---------------------------3----3-33-2-222-2-222------|
E|---------------------------------------3-333-3-333------|

e|-----7-7h8p7-5h7p5--------0--0--7---|
b|------------------8------1-1-1--8---|
g|-5-5-----------------0-------0--9---|
d|-----------------------------2--9---|
a|-----------------------3-----3------|
E|------------------------------------|

And thats it have fun
comments
print report bad tab
16 comments total. Showing first comments.
0 reply
jwhalen wrote on July 18 2006, 09:36 am

Im just wondering does this sound any better? i just added one note right after the 5/7/5. just wondering

Intro
e|-------7-----7/8/7-5/7/5----------0-0-00-3-333-3-333------|
b|---------5---------------8-5--------1-11-3-333-3-333------|
g|-----5-----5-----------------7------0-00-0-000-0-000------| x2
d|---7-----------------------------2--2-22-0-000-0-000------|
a|-0-----------------------------3----3-33-2-222-2-222------|
E|-----------------------------------------3-333-3-333------|

0 reply
FENDER785 wrote on July 18 2006, 03:23 pm

you could play it like that but i prefer my way

0 reply
jaames wrote on July 18 2006, 04:29 pm

Hey dude, tab looks pretty good, a few questionable parts, but overall I give it a 4. For the intro I had it figured out to this, not a WHOLE lot different then yours...
e|----------7---7-/8-7-5h8p5-3-----|
B|------------0----------------5-3-|
G|-------9-------------------------|
D|----7----------------------------|
A|-0-------------------------------|
D|---------------------------------|Then go into C and G

I want to post or [tab]
guest
You may want to rate the tab now too:
select rating
Please do not post tabs as comments. Select "correction" instead!