Oops, an error
Loading. Please wait.

My Turn Tab

version 1
version 1

Whole song

Interactive

4,144 views 9 this week
no commentswrite comment
1 2 3 4 5
please rate
add to favorites
launch autoscroll
font size
0
reset
how to read this tab
guitar tuner
Autoscroll
slow
fast
+/-
esc
set tempo
stop
Help us to improve Ultimate-Guitar.com Take our survey!
×
Contributor
Difficulty
Tuning
alextommo 170
novice
D A D G B E
-------------------------------------------------------------------------------
                             MY TURN - Hoobastank
-------------------------------------------------------------------------------
Tabbed by: AlexTommo
Email: alextommo@hotmail.com

Tuning: Drop D

Intro
e------------------------------------------------|
b------------------------------------------------|
g------------------------------------------------|
d-7----------5---7--------x--x--x--x-------------|
a-5--0-2-3-5-3---5--0-2-3-x--x--x--x-------------|
d----0-2-3-5--------0-2-3-x--x--x--x-------------|

e------------------------------------------------|
b------------------------------------------------|
g------------------------------------------------|
d-7----------5---7--------x-x--x--x-x------------|
a-5--0-2-3-5-3---5--0-2-3-x-x--x--x-x------------|
d----0-2-3-5--------0-2-3-x-x--x--x-x------------|

e------------------------------------------------|
b------------------------------------------------|
g------------------------------------------------|
d-7----------5---7--------x--x--x--x-------------|
a-5--0-2-3-5-3---5--0-2-3-x--x--x--x-------------|
d----0-2-3-5--------0-2-3-x--x--x--x-------------|

e------------------------------------------------|
b------------------------------------------------|
g------------------------------------------------|
d-7----------5---7--------x--x--x--x-------------|
a-5--0-2-3-5-3---5--0-2-3-x--x--x--x-------------|
d----0-2-3-5--------0-2-3-x--x--x--x-------------|

Verse

e------------------------------------------------|
b------------------------------------------------|
g------------------------------------------------|   x3
d-7----------5---7--------x--x--x--x-------------|
a-5--0-2-3-5-3---5--0-2-3-x--x--x--x-------------|
d----0-2-3-5--------0-2-3-x--x--x--x-------------|

Verse continued (0:25)

e----------------------------------------------|
b----------------------------------------------|
g---0--0-----0--0------------------------------|
d--3--3--3--5--3-------------------------------|
a-1--1--1--3--5--------------------------------|
d----------------------------------------------|

Verse (0:28)

e------------------------------------------------|
b------------------------------------------------|
g------------------------------------------------|  x3
d-7----------5---7--------x--x--x--x-------------|
a-5--0-2-3-5-3---5--0-2-3-x--x--x--x-------------|
d----0-2-3-5--------0-2-3-x--x--x--x-------------|

Verse continued (0:39)

e----------------------------------------------|
b----------------------------------------------|
g---0--0-----0--0------------------------------|  x2
d--3--3--3--5--3-------------------------------|
a-1--1--1--3--5--------------------------------|
d----------------------------------------------|

Chorus (0:45)

e-------------------------------------------------------------|
b-------------------------------------------------------------|
g--7---7-7--7-7-----------------7---7-7---7-7-----------------|
d--7---7-7--7-7--8---8-8---8-8--7---7-7---7-7--8---8-8---8-8--|
a--5---5-5--5-5--8---8-8---8-8--5---5-5---5-5--8---8-8---8-8--|
d----------------8---8-8---8-8-----------------8---8-8---8-8--|

Chorus continued (0:53)

e--------------------------------------||--------------|
b--------------------------------------||--------------|
g--10--1010--1010----------------------||----------x4--|
d--10--1010--1010---10---10-10---10-10-||--5-5-5-5-----|
a---8---8-8---8-8---10---10-10---10-10-||--x-x-x-x-----|
d-------------------10---10-10---10-10-||--5-5-5-5-----|

Bridge (1:50)
e------------------------------------------------|
b------------------------------------------------|
g------------------------------------------------| x2
d------------------------------------------------|
a------------------------------------------------|
d--8-8-8-8-8-8-8-8-10-10-10-10-12-12-12-12-------|

Bridge continued (1:57, Clean)
e----------------------------------------------|
b----------------------------------------------|
g---0--0-----0--0------------------------------| x4
d--3--3--3--5--3-------------------------------|
a-1--1--1--3--5--------------------------------|
d----------------------------------------------|

Bridge continued (2:12, With Distortion)
e-----------------|
b-----------------|
g---0--0-----0--0-|
d--3--3--3--5--3--|
a-1--1--1--3--5---|
d-----------------|

Bridge continued (2:22)
e---------------------------------------------------|
b---------------------------------------------------|
g-3---3-3---3-3---5---5-5---5-5---7---7-7---7-7-----|
d-3---3-3---3-3---5---5-5---5-5---7---7-7---7-7-----|
a-1---1-1---1-1---3---3-3---3-3---5---5-5---5-5-----|
d---------------------------------------------------|

Outro (2:54)

e-----------------------------------------|
b-----------------------------------------|
g-----------------------------------------|
d-7----------5---7------------------------|
a-5--0-2-3-5-3---5--0-2-3--+--+--+--+-----|
d----0-2-3-5--------0-2-3--3--3--3--3-----|

End on
e--------------------------|
b--------------------------|
g--------------------------|
d-7----------5---7---------|
a-5--0-2-3-5-3---5--0-2-3--|
d----0-2-3-5--------0-2-3--|

| /  slide up
| \  slide down
| h  hammer-on
| p  pull-off
| ~  vibrato
| +  harmonic
| x  Mute note
===============================================================================
comments
We did not receive enough feedback on this tab! Please rate:
print report bad tab
1 2 3 4 5
I want to post or [tab]
guest
You may want to rate the tab now too:
select rating
Please do not post tabs as comments. Select "correction" instead!