Oops, an error
Loading. Please wait.

Never Saw It Coming Tab

version 2
version 2

Whole song

131 views 3 this week
no commentswrite comment
1 2 3 4 5
please rate
add to favorites
launch autoscroll
font size
0
reset
how to read this tab
guitar tuner
Autoscroll
slow
fast
+/-
esc
set tempo
stop
Help us to improve Ultimate-Guitar.com Take our survey!
×
Contributor
Difficulty
Tuning
alextommo 170
novice
D A D G B E
-------------------------------------------------------------------------------
                                    NEVER SAW IT COMING - Hoobastank
-------------------------------------------------------------------------------
Tabbed by: Alex Tomlinson
Email: alextommo@hotmail.com

Tuning: Drop D


Intro

     S S  S   S S  S S S  S  S S  S S S  S  S  
E||-------------------------------------------|
B||-------------------------------------------|
G||--2----------------------------------------|
D||--2---11s-12-0-14-0-0-17-17-0-14-0-0-12-11-|
A||--0-0--0s--0-0--0-0-0--0--0-0--0-0-0--0--0-|
D||-------------------------------------------|


  S S  S   S S  S S S  S  S S  S  S S  S S    Q    E  Q    E   S  S     
-------------------------------------------|------------------------|
-------------------------------------------|--3----3----------------|
-------------------------------------------|--0----0----------------|
--0-0-11s-12-0-14-0-0-19-19-0-17-17-0-17-0-|--0----0--0----0---0--0-|
--0-0--0s--0-0--0-0-0--0--0-0--0--0-0--0-0-|--3----3--0----0---0--0-|
-------------------------------------------|----------0----0---0--0-|


  S S  S   S S  S S S  S  S S  S S S  S  S  
-------------------------------------------|
-------------------------------------------|
-------------------------------------------|
--2-2-11s-12-0-14-0-0-17-17-0-14-0-0-12-11-|
--0-0--0s--0-0--0-0-0--0--0-0--0-0-0--0--0-|
-------------------------------------------|


  S S  S   S S  S S S  S  S S  S  S S  S S    Q    E  S Q    E  H         
-------------------------------------------|-----------------------------|
-------------------------------------------|-----------------------------|
-------------------------------------------|-----------------------------|
--0-0-11s-12-0-14-0-0-19-19-0-17-17-0-17-0-|--3----3--0-5----5--5--------|
--0-0--0s--0-0--0-0-0--0--0-0--0--0-0--0-0-|--3----3--0-5----5--5--------|
-------------------------------------------|--3----3----5----5--5--------|


Verse (Clean)

    S  S S E  E  E  E  E  S E     S  S S E  E  E  E  E  S S S  3x
|----------0-----0-----0----0--|---------0-----0-----0----0----||
|---3p-2-----------------------|--1p-0-------------------------||
|*-------2----2-----2-----2----|-------2----2-----2-----2---2-*||
|*-----------------------------|------------------------------*||
|------------------------------|-------------------------------||
|------------------------------|-------------------------------||

Verse (Distortion)                                                             <                 
                          3x              S S S S S S S S S  W                 
|------------|------------||-----------|--------------------------------------|
|------------|------------||-----------|--------------------10----------------|
|*-----------|-----------*||-----------|--------------------------------------|
|*-----------|-----------*||-----------|---------------------7----------------|
|------------|------------||-----------|--------------------------------------|
|------------|------------||-----------|--------------------------------------|

Chorus


  S S S S S S S S S S S S S S S S    S S S S S S S S S S S S S S S S        
----------------------------------|----------------------------------|
----------------------------------|----------------------------------|
----------------------------------|----------------------------------|
--7-7-7-7-7-7-7-7-7-7-7-7-7-7-7-7-|--3-3-3-3-3-3-3-0-5-5-5-5-5-5-5-0-|
--7-7-7-7-7-7-7-7-7-7-7-7-7-7-7-7-|--3-3-3-3-3-3-3-0-5-5-5-5-5-5-5-0-|
--7-7-7-7-7-7-7-7-7-7-7-7-7-7-7-7-|--3-3-3-3-3-3-3---5-5-5-5-5-5-5---|

  S S S S S S S S S S S S S S S S    S S S S S S S S S S S S S S S S        
----------------------------------|----------------------------------|
----------------------------------|----------------------------------|
----------------------------------|--5-5-5-5-5-5-5-------------------|
--7-7-7-7-7-7-7-7-7-7-7-7-7-7-7-7-|--5-5-5-5-5-5-5-0-5-5-5-5-5-5-5-0-|
--7-7-7-7-7-7-7-7-7-7-7-7-7-7-7-7-|--3-3-3-3-3-3-3-0-5-5-5-5-5-5-5-0-|
--7-7-7-7-7-7-7-7-7-7-7-7-7-7-7-7-|------------------5-5-5-5-5-5-5---|

Chorus (Second Part)
  S S S S S S S S S S S S S S S S    S S S S S S S S S S S S S S S S        
|----------------------------------|----------------------------------|
|----------------------------------|----------------------------------|
|----------------------------------|----------------------------------|
|--3-3-3-3-5-5-5-5-8-8-8-8-8-8-8-8-|-7--------------------------------|
|--3-3-3-3-5-5-5-5-6-6-6-6-8-8-8-8-|-7--------------------------------|
|--3-3-3-3-5-5-5-5-6-6-6-6-8-8-8-8-|-7--------------------------------|

Bridge is the same as the intro twice, then followed by:

  S S S S S S S S S S S S S S S S    PM S S S S S S S S S S S S S S S        
|----------------------------------|------------------------------------------|
|----------------------------------|-(however many times it's played)---------|
|----------------------------------|-(and gradually easing off the muting-----|
|--3-3-3-3-5-5-5-5-8-8-8-8-8-8-8-8-|-8pm-----------------------------------7\-|
|--3-3-3-3-5-5-5-5-6-6-6-6-8-8-8-8-|-8pm-----------------------------------7\-|
|--3-3-3-3-5-5-5-5-6-6-6-6-8-8-8-8-|-8pm-----------------------------------7\-|

Chorus (Second part played different, less tempo)

End on

  S S S S S S S S S S S S S S S S       
|----------------------------------|
|----------------------------------|
|----------------------------------|
|-8--------------------------------|
|-8--------------------------------|
|-8--------------------------------|
Suggest correction What's this?
You can suggest a correction to this tab. Community and Mods will review your correction and vote to approve or reject it.
comments
We did not receive enough feedback on this tab! Please rate:
print report bad tab
1 2 3 4 5
I want to post or [tab]
guest
You may want to rate the tab now too:
select rating
Please do not post tabs as comments. Select "correction" instead!