Oops, an error
Loading. Please wait.

Never There Tab

version 1
version 1

Whole song

Interactive

5,250 views 3 this week
6 commentsread comments
1 2 3 4 5
x 7
add to favorites
launch autoscroll
font size
0
reset
how to read this tab
guitar tuner
Autoscroll
slow
fast
+/-
esc
set tempo
stop
Help us to improve Ultimate-Guitar.com Take our survey!
×
Author
-------------------------------------------------------------------------------
                             NEVER THERE - Hoobastank
-------------------------------------------------------------------------------
Tabbed by: fender512

Tuning: Dropped D

Intro/Verse: Palm mute notes on 6th string
e|----------------------------------------|----------------------------------------|
B|----------------------------------------|----------------------------------------|
G|----------------------------------------|----------------------------------------|
D|------12------10------------------------|------12------10------------------------|
A|----------------------12------10------9-|----------------------12------10------9-|
D|-0-12----0-10----0-10----0-10----0-12---|-0-12----0-10----0-10----0-10----0-12---|

e|-----------------------------------|-----------------------------------------|
B|-----------------------------------|-----------------------------------------|
G|-----------------------------------|-----------------------------------------|
D|-----------------------------------|------12------10------13------12------10-|
A|-----10-----10-----9-----9------12-|-----------------------------------------|
D|-0-8----0-8----0-7---0-7---0-10----|-0-12----0-10----0-13----0-12----0-10----|



Intro/Chorus                    <-pm>                                  <-pm>    
e|--------------------------------------|--------------------------------------|
B|--------------------------------------|--------------------------------------|
G|-----------------------------------12-|-----------------------------------12-|
D|-0-12-10-0-10-12-0-9-10-0-10-9--------|-0-12-10-0-10-12-0-9-10-0-10-9--------|
A|-0-12-10-0-10-12-0-9-10-0-10-9-----10-|-0-12-10-0-10-12-0-9-10-0-10-9-----10-|
D|-0-12-10-0-10-12-0-9-10-0-10-9-0-0----|-0-12-10-0-10-12-0-9-10-0-10-9-0-0----|

                                                                         <-pm>    
e|----------------------------------------|--------------------------------------|
B|----------------------------------------|--------------------------------------|
G|----------------------------------------|-----------------------------------12-|
D|-10---10---10---10---10/12-12---12---12-|-0-12-10-0-10-12-0-9-10-0-10-9--------|
A|-8----8----8----8----8-/10-10---10---10-|-0-12-10-0-10-12-0-9-10-0-10-9-----10-|
D|-8----8----8----8----8-/10-10---10---10-|-0-12-10-0-10-12-0-9-10-0-10-9-0-0----|



End of Verse
e|-----------------------------------|---------------------------------|
B|-----------------------------------|---------------------------------|
G|-----------------------------------|---------------------------------|
D|-----------------------------------|------12------10------13------12-|
A|-----10-----10-----9-----9------12-|---------------------------------|
D|-0-8----0-8----0-7---0-7---0-10----|-0-12----0-10----0-13----0-12----|

Add a digital tremolo effect.
e|----|
B|----|
G|----|
D|-10-|
A|----|
D|-10-|



End of chorus
e|----------------------------------------|-----------------------------------|
B|----------------------------------------|-----------------------------------|
G|----------------------------------------|-----------------------------------|
D|-10---10---10---10---10/12-12---12---12-|-8---8---8---8---8/10-10---10---10-|
A|-8----8----8----8----8-/10-10---10---10-|-6---6---6---6---6/8—-8----8----8--|
D|-8----8----8----8----8-/10-10---10---10-|-6---6---6---6---6/8--8----8----8--|



Bridge
e|---------------------------------------|
B|---------------------------------------|
G|---------------------------------------|
D|-0-10-12-0-13-12-0-10-12-0-13-12-0-3-5-| x4
A|-0-10-12-0-13-12-0-10-12-0-13-12-0-3-5-|
D|-0-10-12-0-13-12-0-10-12-0-13-12-0-3-5-|

e|---------------------------------|--------------------------------------|
B|---------------------------------|--------------------------------------|
G|---------------------------------|--------------------------------------|
D|---------------------------------|--------------------------------------|
A|-----10-----10-----9-----9-----9-|------12------12-----10-----10-----10-|
D|-0-8----0-8----0-7---0-7---0-7---|-0-10----0-10----0-9----0-9----0-9----|

                                   <----play this only 1st time around---->     x2
e|---------------------------------|-------------------------------------|
B|---------------------------------|-------------------------------------|
G|---------------------------------|-------------------------------------|
D|---------------------------------|-0-10-12-0-13-12-0-10-12-0-13-12-0-3-|
A|-----10-----10-----9-----9-----9-|-0-10-12-0-13-12-0-10-12-0-13-12-0-3-|
D|-0-8----0-8----0-7---0-7---0-7---|-0-10-12-0-13-12-0-10-12-0-13-12-0-3-|

e|---------------------------------------|
B|---------------------------------------|
G|---------------------------------------|
D|-0-10-12-0-13-12-0-10-12-0-13-12-0-3-5-| x3
A|-0-10-12-0-13-12-0-10-12-0-13-12-0-3-5-|
D|-0-10-12-0-13-12-0-10-12-0-13-12-0-3-5-|

(Song ends with this riff)
e|-----------------------------------------|
B|-----------------------------------------|
G|-----------------------------------------|
D|------12------10------13------12------10-|
A|-----------------------------------------|
D|-0-12----0-10----0-13----0-12----0-10----|

| /  slide up
| \  slide down
| h  hammer-on
| p  pull-off
| ~  vibrato
| +  harmonic
| x  Mute note
| pm Palm mute
===============================================================================
Suggest correction
comments
print report bad tab
6 comments total. Showing first comments.
0 reply
fender512 1,316 May 17, 2004 12:00 AM

I meant
-----8-
-0-7---
instead of
-----9-
-0-7---

+2 reply
Hoobadude1 10 Sep 04, 2004 12:00 AM

this tab is so hard to play.. which means its probably right, cuz Dan Estrin kicks so much ass on his Gee-tar

0 reply
alextommo 159 Jan 27, 2008 05:08 PM

It's better to play.


e|----------------------------------------|
B|----------------------------------------|
G|----------------------------------------|
D|-0-12-10-0-10-12-0-9-10-0-10-9--------5-|
A|-0-12-10-0-10-12-0-9-10-0-10-9----------|
D|-0-12-10-0-10-12-0-9-10-0-10-9-0-0--5---|

guest
You may want to rate the tab now too:
select rating
Wanna post a correction for this tab? Suggest correction