Oops, an error
Loading. Please wait.

Open Your Eyes Tab

736 views 1 this week
no commentswrite comment
1 2 3 4 5
please rate
add to favorites
launch autoscroll
font size
0
reset
how to read this tab
guitar tuner
Tab Pro tools
  • play this tab
  • loop segment
  • change instrument
  • show fretboard
  • metronome
×
Best way to learn
"Open Your Eyes"
Autoscroll
slow
fast
+/-
esc
set tempo
stop
Band: Hoobastank
Song: Open Your Eyes
CD: Unreleased
Tuning: Drop D (D,A,D,G,B,E)
Tabbed By: David Nicholson (dnic12345@aol.com)

intro/verse
e---------------------------------------------------------------------------------
b---------------------------------------------------------------------------------
g---------------------------------------------------------------------------------
d----------------------------------------------------0-----------0----------------
a---9---9---9-----10---9---7---4---4--5--5--4-----0-----0-----0-------------------
d-----0---0---0-0----0---0---0---0-------------5-----------3----------------------


intro part 2
e---------------------------------------------------------------------------------
b---------------------------------------------------------------------------------
g---------------------------------------------------------------------------------
d---------------------------------------------------------------------------------
a---9---------------9--------------9-------------9--------------------------------
d------0--3--5--0------0--3--5--0----0--3--5--0----0--3--5--7--0------------------

pre-chorus
e---------------------------------------------------------------------------------
g---------------------------------------------------------------------------------
g--12--12--12--11--11--11--9--9--9--7--7--x--6/7--7--7----------------------------
d---------------------------------------------------------------------------------
a--10--10--10--9---9---9---7--7--7--5--5--x--4/5--5--5----------------------------
d---------------------------------------------------------------------------------

e---------------------------------------------------------------------------------
b---------------------------------------------------------------------------------
g--10--10--10--9--9--9--7--7--7--9--9--9--10--10--10------------------------------
d---------------------------------------------------------------------------------
a--8---8---8---7--7--7--5--5--5--7--7--7--8---8---8-------------------------------
d---------------------------------------------------------------------------------

chorus
e---------------------------------------------------------------------------------
b---------------------------------------------------------------------------------
g---------3-----3--3--3--3b------------------------3-----3--3--3--3b--------------
d---0--3--3--1----------------0--3--6--8-----0--3--3--1---------------------------
a---0--3--1--1----------------0--3--6--8-----0--3--1--1---------------------------
d---0--3-----1----------------0--3--6--8-----0--3-----1---------------------------

post chorus (guitar 1)
e---------------------------------------------------------------------------------
b---------------------------------------------------------------------------------
g---------------------------------------------------------------------------------
d---6--4--6--7--------------------------------------------------------------------
a---6--4--6--7--------------------------------------------------------------------
d---6--4--6--7--------------------------------------------------------------------

other part
e---------------------------------------------------------------------------------
b---------------------------------------------------------------------------------
g---------------------------------------------------------------------------------
d---------------------------------------------------------------------------------
a--12---------------12-----------------------------------------------------------
d-----0--12--10--0------0--12--10--0--9--10--------------------------------------


ntro part 1 (1x)
intro part 2 (2x)
verse (4x)
pre chorus (1x)
chorus (1x)
verse
intro part 1 w/ distortion (1x)
verse (4x)
pre chorus (1x)
chorus (1x)
post chorus (1x)
intro part 2 (2x)
other part (4x)
pre chorus (1x)
chorus (1x)
post chorus (1x)
intro part 2 (1x)

thats it...the verse has some slight variation
comments
We did not receive enough feedback on this tab! Please rate:
print report bad tab
1 2 3 4 5
I want to post or [tab]
guest
You may want to rate the tab now too:
select rating
Please do not post tabs as comments. Select "correction" instead!