Oops, an error
Loading. Please wait.

Out Of Control Tab

version 2
version 2
3,995 views 1 this week
no commentswrite comment
1 2 3 4 5
accurate
x 4
add to favorites
launch autoscroll
font size
0
reset
how to read this tab
guitar tuner
Tab Pro tools
  • play this tab
  • loop segment
  • change instrument
  • show fretboard
  • metronome
×
Best way to learn
"Out Of Control"
Autoscroll
slow
fast
+/-
esc
set tempo
stop
Contributor
----------------------------------------------------------------------------
			    Out Of Control - Hoobastank
----------------------------------------------------------------------------
Hoobastank
The Reason
"Out Of Control"
Tabbed by:Andrew Ly
Email:clr_ak_2_47_andrew_ly_@hotmail.com

Tuning: Drop D (DADGBE)
 
	Intro
E|--x-x-x-x-x-x-x-x-x-x-x-x------------|
B|--8-8-8-8-7-7-7-7-5-5-5-5------------|
G|--x-x-x-x-x-x-x-x-x-x-x-x------------|  repeat throughout verses
D|--x-x-x-x-x-x-x-x-x-x-x-x-7-7-7-7----|
A|--7-7-7-7-7-7-7-7-5-5-5-5-7-7-7-7----|
D|--x-x-x-x-x-x-x-x-x-x-x-x-7-7-7-7----|

	Prechorus
E|------------------------------------------------------------|
B|------------------------------------------------------------|
G|-------------------------5----------------------------------|
D|--2-2-4-5-4-2-2-4-5-4-2--5-----2-2-4-5-4-2-2-4-5-4-2--3-----|
A|--2-2-4-5-4-2-2-4-5-4-2--3-----2-2-4-5-4-2-2-4-5-4-2--3-----|
D|--2-2-4-5-4-2-2-4-5-4-2--------2-2-4-5-4-2-2-4-5-4-2--3-----|

	Chorus
E|----------------------------------------------------------|
B|-----9-9-9-9------12-12-12-12-----------------------------|
G|-----x-x-x-x------x--x--x--x------------4-4-4-5-5-7-7-----|
D|---2-7-7-7-7---10-10-10-10-10---5-5-5-5-4-4-4-5-5-7-7-----|
A|---2-----------10---------------5-5-5-5-2-2-2-3-3-5-5-----|
D|---2-----------10---------------5-5-5-5-------------------|

E|------------------------------------------------------------|
B|-----9-9-9-9------12-12-12-12-----------------11-11-12-12---|
G|-----x-x-x-x------x--x--x--x------------7-7-7-x--x--x--x----|
D|---2-7-7-7-7---10-10-10-10-10---9-9-9-9-7-7-7-9--9--10-10---|
A|---2-----------10---------------9-9-9-9-5-5-5---------------|
D|---2-----------10---------------9-9-9-9---------------------|

	Preverse
E|---0-0-0-0-0-0-0-0----|
B|---7-7-7-7-8-8-8-8----|
G|----------------------|
D|----------------------|
A|----------------------|
D|----------------------|

E|--x-x-x-x-x-x-x-x-x-x-x-x------------|
B|--8-8-8-8-7-7-7-7-5-5-5-5------------|
G|--x-x-x-x-x-x-x-x-x-x-x-x------------| repeat throughout verses
D|--x-x-x-x-x-x-x-x-x-x-x-x-7-7-7-7----|
A|--7-7-7-7-7-7-7-7-5-5-5-5-7-7-7-7----|
D|--x-x-x-x-x-x-x-x-x-x-x-x-7-7-7-7----|


	Prechorus
E|------------------------------------------------------------|
B|------------------------------------------------------------|
G|-------------------------5----------------------------------|
D|--2-2-4-5-4-2-2-4-5-4-2--5-----2-2-4-5-4-2-2-4-5-4-2--3-----|
A|--2-2-4-5-4-2-2-4-5-4-2--3-----2-2-4-5-4-2-2-4-5-4-2--3-----|
D|--2-2-4-5-4-2-2-4-5-4-2--------2-2-4-5-4-2-2-4-5-4-2--3-----|

	Chorus
E|----------------------------------------------------------|
B|-----9-9-9-9------12-12-12-12-----------------------------|
G|-----x-x-x-x------x--x--x--x------------4-4-4-5-5-7-7-----|
D|---2-7-7-7-7---10-10-10-10-10---5-5-5-5-4-4-4-5-5-7-7-----|
A|---2-----------10---------------5-5-5-5-2-2-2-3-3-5-5-----|
D|---2-----------10---------------5-5-5-5-------------------|

E|------------------------------------------------------------|
B|-----9-9-9-9------12-12-12-12-----------------11-11-12-12---|
G|-----x-x-x-x------x--x--x--x------------7-7-7-x--x--x--x----|
D|---2-7-7-7-7---10-10-10-10-10---9-9-9-9-7-7-7-9--9--10-10---|
A|---2-----------10---------------9-9-9-9-5-5-5---------------|
D|---2-----------10---------------9-9-9-9---------------------|

	Bridge
E|-------------------------------|
B|-------------------------------|
G|-------------------------------|
D|---2-2---10-10---5---9-10-12---|
A|---2-2---10-10---5---9-10-12---|
D|---2-2---10-10---5---9-10-12---|

E|------------------------------------------------------------|
B|-----9-9-9-9------12-12-12-12-----------------11-11-12-12---|
G|-----x-x-x-x------x--x--x--x------------7-7-7-x--x--x--x----|
D|---2-7-7-7-7---10-10-10-10-10---9-9-9-9-7-7-7-9--9--10-10---|
A|---2-----------10---------------9-9-9-9-5-5-5---------------|
D|---2-----------10---------------9-9-9-9---------------------|

E|-----------------------------------------------------|
B|-----------------------------------------------------|
G|-----------------------5-----------------------------|   x2
D|---2--4-5-4-2-2--4-5-2-5----2--4-5-4-2-2--4-5-4-2-3--|
A|---2--4-5-4-2-2--4-5-2-3----2--4-5-4-2-2--4-5-4-2-3--|
D|---2--4-5-4-2-2--4-5-2------2--4-5-4-2-2--4-5-4-2-3--|

E|-------0-0-0-0-0-0-0-0--|-------0-0-0-0-----|
B|-------5-5-5-5-3-3-6-6--|-------5-5-5-5-----|
G|------------------------|-------------------|  play first bar 3 times
D|--2-2-------------------|--2-2--------------|  and on the 4th play 
A|--2-2-------------------|--2-2--------------|  last bar
D|--2-2-------------------|--2-2--------------|

E|------------------------------------------------------------|
B|------------------------------------------------------------|
G|-------------------------5----------------------------------|
D|--2-2-4-5-4-2-2-4-5-4-2--5-----2-2-4-5-4-2-2-4-5-4-2--3-----| x2
A|--2-2-4-5-4-2-2-4-5-4-2--3-----2-2-4-5-4-2-2-4-5-4-2--3-----|
D|--2-2-4-5-4-2-2-4-5-4-2--------2-2-4-5-4-2-2-4-5-4-2--3-----|

	Chorus
E|----------------------------------------------------------|
B|-----9-9-9-9------12-12-12-12-----------------------------|
G|-----x-x-x-x------x--x--x--x------------4-4-4-5-5-7-7-----|
D|---2-7-7-7-7---10-10-10-10-10---5-5-5-5-4-4-4-5-5-7-7-----|
A|---2-----------10---------------5-5-5-5-2-2-2-3-3-5-5-----|
D|---2-----------10---------------5-5-5-5-------------------|

E|------------------------------------------------------------|
B|-----9-9-9-9------12-12-12-12-----------------11-11-12-12---|
G|-----x-x-x-x------x--x--x--x------------7-7-7-x--x--x--x----|
D|---2-7-7-7-7---10-10-10-10-10---9-9-9-9-7-7-7-9--9--10-10---|
A|---2-----------10---------------9-9-9-9-5-5-5---------------|
D|---2-----------10---------------9-9-9-9---------------------|

E|-------------------------|
B|-------------------------|
G|-------------------------|
D|---2-2---10-10---5---9---|
A|---2-2---10-10---5---9---|
D|---2-2---10-10---5---9---|

E|------------------------------------------------------------|
B|-----9-9-9-9------12-12-12-12-----------------11-11-12-12---|
G|-----x-x-x-x------x--x--x--x------------7-7-7-x--x--x--x----|
D|---2-7-7-7-7---10-10-10-10-10---9-9-9-9-7-7-7-9--9--10-10---|
A|---2-----------10---------------9-9-9-9-5-5-5---------------|
D|---2-----------10---------------9-9-9-9---------------------|

E|------------------------------------------------------------|
B|------------------------------------------------------------|
G|-------------------------5----------------------------------|
D|--2-2-4-5-4-2-2-4-5-4-2--5-----2-2-4-5-4-2-2-4-5-4-2--3-----| x2
A|--2-2-4-5-4-2-2-4-5-4-2--3-----2-2-4-5-4-2-2-4-5-4-2--3-----|
D|--2-2-4-5-4-2-2-4-5-4-2--------2-2-4-5-4-2-2-4-5-4-2--3-----|



| /  slide up
| \  slide down
| h  hammer-on
| p  pull-off
| ~  vibrato
| +  harmonic
| x  Mute note
============================================================================
comments
print report bad tab
I want to post or [tab]
guest
You may want to rate the tab now too:
select rating
Please do not post tabs as comments. Select "correction" instead!