Oops, an error
Loading. Please wait.

Out Of Control Tab

version 6
version 6
824 views 1 this week
1 commentread comment
1 2 3 4 5
please rate
add to favorites
launch autoscroll
font size
0
reset
how to read this tab
guitar tuner
Autoscroll
slow
fast
+/-
esc
set tempo
stop
Help us to improve Ultimate-Guitar.com Take our survey!
×
Author
-------------------------------------------------------------------------------
                             Out of Control - Hoobastank
-------------------------------------------------------------------------------
Tabbed by:fender512

Tuning:Dropped D

I'm not sure how this first part would be strummed. Some of it might be fingerpicked.

Intro/Verse
e|---3---3---3---3---2---2---2---2---0---0---0---0-----------------|
B|-----------------------------------------------------------------|
G|-----------------------------------------------------------------|
D|---2---2---2---2---2---2---2---2---0---0---0---0---2---2---2-2-2-| x3
A|---------------------------------------------------0---0---0-0-0-|
D|-2---2---2---2---2---2---2---2---2---2---2---2---2---2---2-------|


Another guitar does a pick scrape at the end of the verses.
e|---3---3---3---3---2---2---2---2---0---0---0---0-----------------|
B|-----------------------------------------------------------------|
G|-----------------------------------------------------------------|
D|---2---2---2---2---2---2---2---2---0---0---0---0-7-7-7-7-7-5-5-5-|
A|-------------------------------------------------7-7-7-7-7-5-5-5-|
D|-2---2---2---2---2---2---2---2---2---2---2---2---7-7-7-7-7-5-5-5-|


Pre-chorus
e|-----------------------------------------------------------------|
B|-----------------------------------------------------------------|
G|---------------------------5-5-5---------------------------------|
D|-2-2-2-4-5-4-2-2-2-4-5-4-2-5-5-5-2-2-2-4-5-4-2-2-2-4-5-4-2-3-3-3-|
A|-2-2-2-4-5-4-2-2-2-4-5-4-2-3-3-3-2-2-2-4-5-4-2-2-2-4-5-4-2-3-3-3-|
D|-2-2-2-4-5-4-2-2-2-4-5-4-2-------2-2-2-4-5-4-2-2-2-4-5-4-2-3-3-3-|


Chorus
e|-----------------------------------------------------------------------|
B|-----------------------------------------------------------------------|
G|-------9-9-9-9-----------12-12-12-12-------------------4-4-4-5-5-5-7-7-|
D|-2-2-------------10-10-----------------5-5-5-5-5-5-5-5-4-4-4-5-5-5-7-7-|
A|-2-2---7-7-7-7---10-10---10-10-10-10---5-5-5-5-5-5-5-5-2-2-2-3-3-3-5-5-|
D|-2-2-------------10-10-----------------5-5-5-5-5-5-5-5-----------------|


e|-----------------------------------------------------------------------|
B|-----------------------------------------------------------------------|
G|-------9-9-9-9-----------12-12-12-12-------------------7-7-7-7-7-7-7-7-|
D|-2-2-------------10-10-----------------9-9-9-9-9-9-9-9-7-7-7-7-7-7-7-7-|
A|-2-2---7-7-7-7---10-10---10-10-10-10---9-9-9-9-9-9-9-9-5-5-5-5-5-5-5-5-|
D|-2-2-------------10-10-----------------9-9-9-9-9-9-9-9-----------------|


I think another guitar plays this during the last four chords above.
e|-------------|
B|-------------|
G|-11-11-11-11-|
D|-------------|
A|-9--9--9--9--|
D|-------------|


Played quietly with a special effect before next verse.
e|---------------------------------|
B|-8-8-8-8-8-8-8-8-7-7-7-7-7-7-7-7-|
G|---------------------------------|
D|---------------------------------|
A|-7-7-7-7-7-7-7-7-7-7-7-7-7-7-7-7-|
D|---------------------------------|


Verse
e|---3---3---3---3---2---2---2---2---0---0---0---0-----------------|
B|-----------------------------------------------------------------|
G|-----------------------------------------------------------------|
D|---2---2---2---2---2---2---2---2---0---0---0---0---2---2---2-2-2-| x2
A|---------------------------------------------------0---0---0-0-0-|
D|-2---2---2---2---2---2---2---2---2---2---2---2---2---2---2-------|


e|-----------------------------------------------------------------|
B|-8-8-8-8-8-8-8-8-7-7-7-7-7-7-7-7-5-5-5-5-5-5-5-5-----------------|
G|-----------------------------------------------------------------|
D|-------------------------------------------------7-7-7-7-7-5-5-5-|
A|-7-7-7-7-7-7-7-7-7-7-7-7-7-7-7-7-5-5-5-5-5-5-5-5-7-7-7-7-7-5-5-5-|
D|-------------------------------------------------7-7-7-7-7-5-5-5-|


Pre-chorus
e|-----------------------------------------------------------------|
B|-----------------------------------------------------------------|
G|---------------------------5-5-5---------------------------------|
D|-2-2-2-4-5-4-2-2-2-4-5-4-2-5-5-5-2-2-2-4-5-4-2-2-2-4-5-4-2-3-3-3-|
A|-2-2-2-4-5-4-2-2-2-4-5-4-2-3-3-3-2-2-2-4-5-4-2-2-2-4-5-4-2-3-3-3-|
D|-2-2-2-4-5-4-2-2-2-4-5-4-2-------2-2-2-4-5-4-2-2-2-4-5-4-2-3-3-3-|


Chorus
e|-----------------------------------------------------------------------|
B|-----------------------------------------------------------------------|
G|-------9-9-9-9-----------12-12-12-12-------------------4-4-4-5-5-5-7-7-|
D|-2-2-------------10-10-----------------5-5-5-5-5-5-5-5-4-4-4-5-5-5-7-7-|
A|-2-2---7-7-7-7---10-10---10-10-10-10---5-5-5-5-5-5-5-5-2-2-2-3-3-3-5-5-|
D|-2-2-------------10-10-----------------5-5-5-5-5-5-5-5-----------------|


e|----------------------------------------------------------------------------|
B|----------------------------------------------------------------------------|
G|-------9-9-9-9-----------12-12-12-12-------------------7-7-7-11-11-11-12-12-|
D|-2-2-------------10-10-----------------9-9-9-9-9-9-9-9----------------------|
A|-2-2---7-7-7-7---10-10---10-10-10-10---9-9-9-9-9-9-9-9-5-5-5-9--9--9--10-10-|
D|-2-2-------------10-10-----------------9-9-9-9-9-9-9-9----------------------|


e|-----------------------------------------------------------------|
B|-----------------------------------------------------------------|
G|-----------------5-5-----5-----5-----------------4-4-4-4-4-4-4-4-|
D|-2-2-----2-----2-5-5-----5-----5-5-5-----5-----5-4-4-4-4-4-4-4-4-|
A|-2-2-----2-----2-3-3-----3-----3-5-5-----5-----5-2-2-2-2-2-2-2-2-|
D|-2-2-----2-----2-----------------5-5-----5-----5-----------------|


e|-----------------------------------------------------------------------|
B|-----------------------------------------------------------------------|
G|-------9-9-9-9-----------12-12-12-12-------------------7-7-7-7-7-7-7-7-|
D|-2-2-------------10-10-----------------9-9-9-9-9-9-9-9-7-7-7-7-7-7-7-7-|
A|-2-2---7-7-7-7---10-10---10-10-10-10---9-9-9-9-9-9-9-9-5-5-5-5-5-5-5-5-|
D|-2-2-------------10-10-----------------9-9-9-9-9-9-9-9-----------------|


Bridge
e|-----------------------------------------------------------------|
B|-----------------------------------------------------------------|
G|---------------------------5-5-5---------------------------------|
D|-2-2---4-5-4-2-2---4-5-4-2-5-5-5-2-2---4-5-4-2-2---4-5-4-2-3-3-3-| x2
A|-2-2---4-5-4-2-2---4-5-4-2-3-3-3-2-2---4-5-4-2-2---4-5-4-2-3-3-3-|
D|-2-2---4-5-4-2-2---4-5-4-2-------2-2---4-5-4-2-2---4-5-4-2-3-3-3-|


e|-------0-0-0-0-0-0----------------|
B|-------------------3-3-3-/6-6-6-6-|
G|----------------------------------|
D|-2-2------------------------------| x3
A|-2-2------------------------------|
D|-2-2------------------------------|


e|-------0-0-0-0-0-|
B|-----------------|
G|-----------------|
D|-2-2-------------|
A|-2-2-------------|
D|-2-2-------------|


Pre-chorus
e|-----------------------------------------------------------------|
B|-----------------------------------------------------------------|
G|---------------------------5-5-5---------------------------------|
D|-2-2-2-4-5-4-2-2-2-4-5-4-2-5-5-5-2-2-2-4-5-4-2-2-2-4-5-4-2-3-3-3-| x2
A|-2-2-2-4-5-4-2-2-2-4-5-4-2-3-3-3-2-2-2-4-5-4-2-2-2-4-5-4-2-3-3-3-|
D|-2-2-2-4-5-4-2-2-2-4-5-4-2-------2-2-2-4-5-4-2-2-2-4-5-4-2-3-3-3-|


Chorus
e|-----------------------------------------------------------------------|
B|-----------------------------------------------------------------------|
G|-------9-9-9-9-----------12-12-12-12-------------------4-4-4-5-5-5-7-7-|
D|-2-2-------------10-10-----------------5-5-5-5-5-5-5-5-4-4-4-5-5-5-7-7-|
A|-2-2---7-7-7-7---10-10---10-10-10-10---5-5-5-5-5-5-5-5-2-2-2-3-3-3-5-5-|
D|-2-2-------------10-10-----------------5-5-5-5-5-5-5-5-----------------|


e|----------------------------------------------------------------------------|
B|----------------------------------------------------------------------------|
G|-------9-9-9-9-----------12-12-12-12-------------------7-7-7-11-11-11-12-12-|
D|-2-2-------------10-10-----------------9-9-9-9-9-9-9-9----------------------|
A|-2-2---7-7-7-7---10-10---10-10-10-10---9-9-9-9-9-9-9-9-5-5-5-9--9--9--10-10-|
D|-2-2-------------10-10-----------------9-9-9-9-9-9-9-9----------------------|


e|-----------------------------------------------------------------|
B|-----------------------------------------------------------------|
G|-----------------5-5-----5-----5-----------------4-4-4-4-4-4-4-4-|
D|-2-2-----2-----2-5-5-----5-----5-5-5-----5-----5-4-4-4-4-4-4-4-4-|
A|-2-2-----2-----2-3-3-----3-----3-5-5-----5-----5-2-2-2-2-2-2-2-2-|
D|-2-2-----2-----2-----------------5-5-----5-----5-----------------|


e|-----------------------------------------------------------------------|
B|-----------------------------------------------------------------------|
G|-------9-9-9-9-----------12-12-12-12-------------------7-7-7-7-7-7-7-7-|
D|-2-2-------------10-10-----------------9-9-9-9-9-9-9-9-7-7-7-7-7-7-7-7-|
A|-2-2---7-7-7-7---10-10---10-10-10-10---9-9-9-9-9-9-9-9-5-5-5-5-5-5-5-5-|
D|-2-2-------------10-10-----------------9-9-9-9-9-9-9-9-----------------|


Outro
e|-----------------------------------------------------------------|
B|-----------------------------------------------------------------|
G|---------------------------5-5-5---------------------------------|
D|-2-2-2-4-5-4-2-2-2-4-5-4-2-5-5-5-2-2-2-4-5-4-2-2-2-4-5-4-2-3-3-3-|
A|-2-2-2-4-5-4-2-2-2-4-5-4-2-3-3-3-2-2-2-4-5-4-2-2-2-4-5-4-2-3-3-3-|
D|-2-2-2-4-5-4-2-2-2-4-5-4-2-------2-2-2-4-5-4-2-2-2-4-5-4-2-3-3-3-|



| /  slide up
| \  slide down
| h  hammer-on
| p  pull-off
| ~  vibrato
| +  harmonic
| x  Mute note
===============================================================================
Suggest correction
What's this?
You can suggest a correction to this tab. Community and Mods will review your correction and vote to approve or reject it.
comments
We did not receive enough feedback on this tab! Please rate:
print report bad tab
1 2 3 4 5
1 comment total.
0 reply
idiotman 27 wrote on July 15 2004, 12:00 am

Why the hell would he fingerpick it?

guest
You may want to rate the tab now too:
select rating
Please do not post tabs as comments. Select "correction" instead!