Oops, an error
Loading. Please wait.

Pieces Tab

version 3
version 3

Whole song

Interactive

1,264 views 1 this week
2 commentsread comments
1 2 3 4 5
1 last vote to show rating
add to favorites
launch autoscroll
font size
0
reset
how to read this tab
guitar tuner
Autoscroll
slow
fast
+/-
esc
set tempo
stop
Help us to improve Ultimate-Guitar.com Take our survey!
×
Hoobastank
Pieces

Tabbed by Vince aka

Gtr I (E B E G# B E) - 'Untitled'

 Intro
  Moderately Q=100
 4/4
  Gtr I
  PM---------------------------
|------7------7------7------7-|
|------8------8------8------8-|
|-----10-----10-----10-----10-|
|-0-0----0-0----0-0----0-0----|
|-----------------------------|
|-----------------------------|


 --------------------------------------------------------|
|------7------7------7--------|------7------7------7------7-|
|------8------8------8--------|------8------8------8------8-|
|-----10-----10-----10--------|-----10-----10-----10-----10-|
|-0-0----0-0----0-0----0-0----|-----------------------------|
|----------------------0-0----|-0-0----0-0----0-0----0-0----|
|--------------------------7\-|-0-0----0-0----0-0----0-0----|


  PM-------|
|------7------7-0-0-0-0-0-0-0-0-||----------------------------------------|
|------8------8-0-0-0-0-0-0-0-0-||o---------------------------------------|
|-----10-----10-0-0-0-0-0-0-0-0-||----------------------------------------|
|---------------0-0-0-0-0-0-0-0-||----------------------------------------|
|-0-0----0-0--------------------||o-10s12-12-12-12-6-6-6-6-5-5-5-5-0-0-0--|
|-0-0----0-0--------------------||--10s12-12-12-12-6-6-6-6-5-5-5-5-0-0-0--|


|--------------------------0-----0-|---------------------------------------|
|--------------------------0-----0-|---------------------------------------|
|--------------------------0-----0-|---------------------------------------|
|----------------------------------|---------------------------------------|
|-10s12-12-12-12-6-6-6-6-5---6-5---|-10s12-12-12-12-6-6-6-6-5-5-5-5-0-0-0--|
|-10s12-12-12-12-6-6-6-6-5---6-5---|-10s12-12-12-12-6-6-6-6-5-5-5-5-0-0-0--|


  1.                                      2.
|--------------------------------------||-------------------------------------||
|-------------------------------------o||-------------------------------------||
|-11-11-----11-11----------------------||-11-11-----11-11---------------------||
|-10-10-----10-10----------------------||-10-10-----10-10---------------------||
|--8--8------8--8-----3-3-----5-5-----o||--8--8------8--8-----3-3-----5-5-----||
|--8--8-8-8--8--8-8-8-3-3-0-0-5-5-0-0--||--8--8-8-8--8--8-8-8-3-3-0-0-5-5-0-0-||


   Verse
||------------------------|---------------------------------|
||o-----------------------|---------------------------------|
||------------------------|---------------------------------|
||--10s12-12-12-----------|-10s12-12-12-12-6-6-x-6-5--6-5---|
||o-10s12-12-12-12-6\-----|-10s12-12-12-12-6-6-x-6-5--6-5---|
||--10s12-12-12----6\-----|-10s12-12-12-12-6-6-x-6-5--6-5---|


                             PM|    PM|   PM|   PM|
|-----------------------|----------------------------|
|-----------------------|----------------------------|
|-----------------------|----------------------------|
|-10s12-12-12-----------|-10-----10-----3------------|
|-10s12-12-12-12-6\-----|--8------8-----3-----5------|
|-10s12-12-12----6\-----|--8-8-8--8-0-0-3-0-0-5-0-0--|


|-----------------------|--------------------------------|
|-----------------------|--------------------------------|
|-----------------------|--------------------------------|
|-10s12-12-12-----------|-10s12-12-12-12-6-6-x-6-5--6-5--|
|-10s12-12-12-12-6\-----|-10s12-12-12-12-6-6-x-6-5--6-5--|
|-10s12-12-12----6\-----|-10s12-12-12-12-6-6-x-6-5--6-5--|


                             PM|    PM|   PM|   PM|
|-----------------------|---------------------------|
|-----------------------|---------------------------|
|-----------------------|---------------------------|
|-10s12-12-12-----------|-10-----10-----3-----------|
|-10s12-12-12-12-6\-----|--8------8-----3-----5-----|
|-10s12-12-12----6\-----|--8-8-8--8-0-0-3-0-0-5-0-0-|


 Chorus
  Double Time Q=200
  $
|-0-0-0-0-0-0-0-0-|-0-0-0-0-0-0-0-0-|
|-0-0-0-0-0-0-0-0-|-0-0-0-0-0-0-0-0-|
|-0-0-0-0-0-0-0-0-|-0-0-0-0-0-0-0-0-|
|-0-0-0-0-0-0-0-0-|-0-0-0-0-0-0-0-0-|
|-0-0-0-0-0-0-0-0-|-0-0-0-0-0-0-0-0-|
|-0-0-0-0-0-0-0-0-|-0-0-0-0-0-0-0-0-|


|-0-----------------------|-------------------------|
|-0-----------------------|-------------------------|
|-0-----------------------|-------------------------|
|-0-/10-10-10-10-10-10-10-|-10-10-10-10-10-10-10-10-|
|-0--/8--8--8--8--8--8--8-|--8--8--8--8--8--8--8--8-|
|-0--/8--8--8--8--8--8--8-|--8--8--8--8--8--8--8--8-|


|------------------|-----------------|
|------------------|-----------------|
|------------------|-----------------|
|-10-7-7-7-7-7-7-7-|-7-7-7-7-7-7-7-7-|
|--8-5-5-5-5-5-5-5-|-5-5-5-5-5-5-5-5-|
|--8-5-5-5-5-5-5-5-|-5-5-5-5-5-5-5-5-|


|------------------------|------------------|
|------------------------|------------------|
|------------------------|------------------|
|-7-10-10-10-10-10-10-10-|-10-5-5-5-5-5-5-5-|
|-5--8--8--8--8--8--8--8-|--8-3-3-3-3-3-3-3-|
|-5--8--8--8--8--8--8--8-|--8-3-3-3-3-3-3-3-|


|-0-0-0-0-0-0-0-0-|-0-0-0-0-0-0-0-0-|
|-0-0-0-0-0-0-0-0-|-0-0-0-0-0-0-0-0-|
|-0-0-0-0-0-0-0-0-|-0-0-0-0-0-0-0-0-|
|-0-0-0-0-0-0-0-0-|-0-0-0-0-0-0-0-0-|
|-0-0-0-0-0-0-0-0-|-0-0-0-0-0-0-0-0-|
|-0-0-0-0-0-0-0-0-|-0-0-0-0-0-0-0-0-|


|-0-----------------------|-------------------------|
|-0-----------------------|-------------------------|
|-0-----------------------|-------------------------|
|-0-/10-10-10-10-10-10-10-|-10-10-10-10-10-10-10-10-|
|-0--/8--8--8--8--8--8--8-|--8--8--8--8--8--8--8--8-|
|-0--/8--8--8--8--8--8--8-|--8--8--8--8--8--8--8--8-|


|------------------|-----------------|
|------------------|-----------------|
|------------------|-----------------|
|-10-7-7-7-7-7-7-7-|-7-7-7-7-7-7-7-7-|
|--8-5-5-5-5-5-5-5-|-5-5-5-5-5-5-5-5-|
|--8-5-5-5-5-5-5-5-|-5-5-5-5-5-5-5-5-|


                                         To Coda
|------------------------|-------------------------|
|------------------------|-------------------------|
|------------------------|-------------------------|
|-7-10-10-10-10-10-10-10-|-10-12-12-12-12-12-12-12-|
|-5--8--8--8--8--8--8--8-|--8-10-10-10-10-10-10-10-|
|-5--8--8--8--8--8--8--8-|--8-10-10-10-10-10-10-10-|


  1.lf Time Q=100
                                         PM-----------------------|
|--------------------------------------|------7------7------7------7--||-|
|--------------------------------------|------8------8------8------8-o||-|
|--------------------------------------|-----10-----10-----10-----10--||-|
|--------------------------------0-0-0-|-0-0----0-0----0-0----0-0-----||-|
|-10s12-12-12-12-6-6-6-6-5-5-5-5-0-0-0-|-----------------------------o||-|
|-10s12-12-12-12-6-6-6-6-5-5-5-5-0-0-0-|------------------------------||-|


  2.100
|------7------7------7------7-|------7------7------7---------||
|------8------8------8------8-|------8------8------8---------||
|-----10-----10-----10-----10-|-----10-----10-----10---------||
|-0-0----0-0----0-0----0-0----|-0-0----0-0----0-0----0-0-----||
|-----------------------------|------------------------------||
|-----------------------------|--------------------------14\-||


   Interlude
||-------7-------------7--------|------7-------------7---------|
||o------8-------------8--------|------8-------------8---------|
||------10------------10--------|-----10------------10---------|
||-------0-----10------0-----10-|------0-----10------0-----10--|
||o-0-0----0-0--8-0-0----0-0--8-|-0-0----0-0--8-0-0----0-0--8--|
||--0-0----0-0--7-0-0----0-0--7-|-0-0----0-0--7-0-0----0-0--7--|


|-----------------------------|------------------------------||
|-----------------------------|-----------------------------o||
|-----10------------10--------|-----10------------10---------||
|------8-----10------8-----10-|------8-----10------8---------||
|-8-8----8-8--8-8-8----8-8--8-|-8-8----8-8--8-8-8----8-8S10-o||
|-8-8----8-8----8-8----8-8----|-8-8----8-8----8-8----8-8S10--||


 Bridge
|-----12-----12-----12-----12-|
|-----12-----12-----12-----12-|
|------8------8------8------8-|
|-----------------------------|
|-0-0----0-0----0-0----0-0----|
|-0-0----0-0----0-0----0-0----|


|-----12-----12-----12-----12\-|------------------------------|
|-----12-----12-----12-----12\-|------------------------------|
|------8------8------8------8\-|------------------------------|
|------------------------------|-----10-----10-----10---------|
|-0-0----0-0----0-0----0-0-----|------8------8------8-----8s7-|
|-0-0----0-0----0-0----0-0-----|-8-8----8-8----8-8----8-8-8s7-|


|---------------------------|-----12-----12-----12-----12-|
|---------------------------|-----12-----12-----12-----12-|
|---------------------------|------8------8------8------8-|
|-----3-------------5-----5-|-----------------------------|
|-----3-----3-------3-----3-|-0-0----0-0----0-0----0-0----|
|-3-3---3-3-3p0-2-2---2-2---|-0-0----0-0----0-0----0-0----|


|-----12-----12-----12-----12\-|
|-----12-----12-----12-----12\-|
|------8------8------8------8\-|
|------------------------------|
|-0-0----0-0----0-0----0-0-----|
|-0-0----0-0----0-0----0-0-----|


|------------------------------|----------------------------------|
|------------------------------|--------------------------------0-|
|------------------------------|--------------------------------0-|
|-----10-----10-----10---------|-3-3-3-3-3-3-3-3-/5-5-5-5-5-5-5-0-|
|------8------8------8-----8s7-|-3-3-3-3-3-3-3-3-/5-5-5-5-5-5-5---|
|-8-8----8-8----8-8----8-8-8s7-|-3-3-3-3-3-3-3-3-/5-5-5-5-5-5-5---|


|--------------|-------------------------|------------|
|-0------------|-0---------------------0-|-0----------|
|-0------------|-0---------------------0-|-0----------|
|-0-0-(0)------|-0-10-(10)--(10)--(10)-0-|-0-7-(7)----|
|---0-(0)------|----8--(8)---(8)---(8)---|---5-(5)----|
|---0-(0)------|----8--(8)---(8)---(8)---|---5-(5)----|


                                       Outro
                         D.S. al Coda   &
|---------------------------------0--||---------------------------------------|
|---------------------------------0--||---------------------------------------|
|---------------------------------0--||---------------------------------------|
|------------------------------------||-10s12-12-12-12------------------------|
|-1-1-1-1-1-1-1-1-<3>-<3>-<3>-<3>----||-10s12-12-12-12-6-6-6-6-5-5-5-5-0-0-0--|
|-3-3-3-3-3-3-3-3--------------------||-10s12-12-12-12-6-6-6-6-5-5-5-5-0-0-0--|


|--------------------------------------|--------------------------------------|
|--------------------------------------|--------------------------------------|
|--------------------------------------|--------------------------------------|
|-10s12-12-12-12-----------------------|-10s12-12-12-12-----------------------|
|-10s12-12-12-12-6-6-6-6-5-5-5-5-0-0-0-|-10s12-12-12-12-6-6-6-6-5-5-5-5-0-0-0-|
|-10s12-12-12-12-6-6-6-6-5-5-5-5-0-0-0-|-10s12-12-12-12-6-6-6-6-5-5-5-5-0-0-0-|


|--------------------------------------|----------------------------------*|
|--------------------------------------|----------------------------------*|
|--------------------------------------|----------------------------------*|
|-10s12-12-12-12-----------------------|-10s12-12-12-12-------------------*|
|-10s12-12-12-12-6-6-6-6-5-5-5-5-0-0-0-|-10s12-12-12-12-6-6-6-6-5--0-6-5--*|
|-10s12-12-12-12-6-6-6-6-5-5-5-5-0-0-0-|-10s12-12-12-12-6-6-6-6-5--0-6-5--*|


Tablature Legend
----------------
 h   - hammer-on
 p   - pull-off
 b   - bend
 pb  - pre-bend
 r   - bend release (if no number after the r, then release immediately)
 /\  - slide into or out of (from/to "nowhere")
 s   - legato slide
 S   - shift slide
  - natural harmonic
[n]  - artificial harmonic
n(n) - tapped harmonic
 ~   - vibrato
 tr  - trill
 T   - tap
 TP  - trem. picking
 PM  - palm muting
\n/  - tremolo bar dip; n = amount to dip
 \n  - tremolo bar down
 n/  - tremolo bar up
/n\  - tremolo bar inverted dip
 =   - hold bend; also acts as connecting device for hammers/pulls
 <>  - volume swell (louder/softer)
 x   - on rhythm slash represents muted slash
 o   - on rhythm slash represents single note slash

Misc Legend
-----------
 |  - bar
||  - double bar
||o - repeat start
o|| - repeat end
*|  - double bar (ending)
 :  - bar (freetime)
 $  - Segno
 &  - Coda
Tempo markers -  = BPM(8/16=s8/s16), 
where s8 = swing 8ths, s16 = swing 16ths


 Generated using Power Tab Editor by Brad Larsen 
        http://powertab.guitarnetwork.org
Suggest correction
Give kudos to tab author, rate the tab!
1 2 3 4 5
comments
print report bad tab
2 comments total.
0 reply
Bassman13 230 Apr 07, 2004 12:00 AM

sposed to be drop D!!

0 reply
RsEagle27 31 Jul 25, 2005 12:00 AM

Awsome. Best tab out for this song! And Bassman13, I think you need to watch that video agian, because this song IS in Open E.

guest
You may want to rate the tab now too:
select rating
Wanna post a correction for this tab? Suggest correction