Oops, an error
Loading. Please wait.

Remember Me Bass Tab

version 1
version 1

Whole song

Interactive

827 views 1 this week
no commentswrite comment
1 2 3 4 5
please rate
add to favorites
launch autoscroll
font size
0
reset
guitar tuner
Autoscroll
slow
fast
+/-
esc
set tempo
stop
Help us to improve Ultimate-Guitar.com Take our survey!
×
Artist:     Hoobastank
Title:      Remember Me
Album:      Hoobastank
Tabbed by:  pacozoro
Email:      paco_zoro01@yahoo.com
Date:       13 November 2002


This is my first ever tab to a great song.  I tried to make it sound as close as
possible but I would love to have any corrections and any other feedback so this
tab is correct.  Thanks and rock on!!


      / - slide up
      \ - slide down
      x - play 'note' with heavy damping (mute)


Tuning:  Drop D

Verse: X2 

G------------------------------------------------------------------------------
D------------------------------------------------------------------------------
A------------------------------------------------------------------------------
D--0-0-0-0-0-0-0-0-0-0-0-0-0-0-0-0-5-5-5-5-5-5-5-5-3-3-3-3-2-2-2-2-------------


Pre-Chorus: X2

G------------------------------------------------------------------------------
D------------------------------------------------------------------------------
A------------------------------------------------------------------------------
D--0-10-12-0-12-10-0-3-5-----0-10-12-0-12-10-0--5------------------------------


Chorus: X2					      

G------------------------------------------------------------------------------
D------------------------------------------------------------------------------
A--------------------------------3\1-1-1-1-1-3-3-3-3--5-3-5-3-5-3--------------
D--0-0x--0-0x--0-0x--3-3x--3-3x------------------------------------------------


Verse (X2)

Pre-Chorus (X2)


Chorus 2:  X2					          
						           Repeat X4
G----------------------------------------------------|------------------|------
D----------------------------------------------------|-----------------o|------
A--------------------------------3\1-1-1-1-1-3-3-3-3-|--5-3-5-3-0-3----o|------
D--0-0x--0-0x--0-0x--3-3x--3-3x----------------------|------------------|------


Bridge:
            
G---------------------------------------------------
D---------------------------------------------------
A--5-0-3-0-5-0-5-0-3-0-5-0-5-0-3-0-5-0-5-0-3-0------
D----------------------------------------------3-2--


Bridge (Part 2):  X2

G----------------------------
D----------------------------
A--5-0-3-0-----5-0-3-0-------
D----------3-2---------3-2---


Bridge (Part 3):  X4

G--------------------
D--------------------
A---5-3-5-3-5-3------
D--------------------


Repeat Chorus 2 (X2)

End
Suggest correction
Give kudos to tab author, rate the tab!
1 2 3 4 5
comments
print report bad tab
guest
You may want to rate the tab now too:
select rating
Wanna post a correction for this tab? Suggest correction