Oops, an error
Loading. Please wait.

Right Before Your Eyes Tab

version 2
version 2

Whole song

542 views 1 this week
no commentswrite comment
1 2 3 4 5
3 more votes to show rating
add to favorites
launch autoscroll
font size
0
reset
how to read this tab
guitar tuner
Autoscroll
slow
fast
+/-
esc
set tempo
stop
Help us to improve Ultimate-Guitar.com Take our survey!
×
Author
Tuning-Dropped Db
Db-Ab-Db-Gb-Bb-Eb

I was looking all over the internet
and saw no real accurate tabs of this
song, so i thought i'd have a stab at
one of my own.

pm-palm mute
x-mute string

      (repeat 4 times)
|-------------000000111111-000000111111---------------|
|-111111111111111111111111-333333333333-111111111111--|
|-222222222222222222222222--------------333333333333--|
|---------------------------------------333333333333--|
|-----------------------------------------------------|
|-----------------------------------------------------|
pm------------------------ ------------ --------------|

     (repeat 2 times)
|-------------------------------------------------------------------------|
|-------------------------------------------------------------------------|
|-5---5--5-4---4--4-2---2--2-4---4--4-5---5--5-4---4--4-5---5--5-4---4--4-|
|-2---2--2-2---2--2-2---2--2-2---2--2-5---5--5-5---5--5-0---0--0-0---0--0-|
|-0---0--0-0---0--0-0---0--0-0---0--0-3---3--3-3---3--3-x---x--x-x---x--x-|
|-------------------------------------------------------5---5--5-5---5--5-|

|-1-----0------1-----0-----|
|-1-----1------1-----1-----|
|-3-----3------0-----0-----|
|--------------------------|
|--------------------------|
|--------------------------|



  (repeat 2 times)
|----------------------------------------------------------------|
|----------------------------------------------------------------|
|-222222222222-555555--------------------------------------------|
|-222222222222-555555-555555-0---0--0-0---0--0-8---8--8-5---5--5-|
|-000000000000-333333-555555-0---0--0-0---0--0-8---8--8-5---5--5-|
|---------------------555555-0---0--0-0---0--0-8---8--8-5---5--5-|


  (repeat twice)
|-------------000000111111-000000111111---------------|
|-111111111111111111111111-333333333333-111111111111--|
|-222222222222222222222222--------------333333333333--|
|---------------------------------------333333333333--|
|-----------------------------------------------------|
|-----------------------------------------------------|
pm------------------------ ------------ --------------|


     (repeat 2 times)
|-------------------------------------------------------------------------|
|-------------------------------------------------------------------------|
|-5---5--5-4---4--4-2---2--2-4---4--4-5---5--5-4---4--4-5---5--5-4---4--4-|
|-2---2--2-2---2--2-2---2--2-2---2--2-5---5--5-5---5--5-0---0--0-0---0--0-|
|-0---0--0-0---0--0-0---0--0-0---0--0-3---3--3-3---3--3-x---x--x-x---x--x-|
|-------------------------------------------------------5---5--5-5---5--5-|

|-1-----0------1-----0-----|
|-1-----1------1-----1-----|
|-3-----3------0-----0-----|
|--------------------------|
|--------------------------|
|--------------------------|


  (repeat 2 times)
|----------------------------------------------------------------|
|----------------------------------------------------------------|
|-222222222222-555555--------------------------------------------|
|-222222222222-555555-555555-0---0--0-0---0--0-8---8--8-5---5--5-|
|-000000000000-333333-555555-0---0--0-0---0--0-8---8--8-5---5--5-|
|---------------------555555-0---0--0-0---0--0-8---8--8-5---5--5-|

|-------------------------------|
|-------------------------------|
|-----------------5-------------|
|-3---------------5-------5-----|
|-3---------------3-------5-----|
|-3-----------------------5-----|


  (repeat 3 times)
|-----------------------------------------|
|-----------------------------------------|
|-----141414-----121212--------141414-----|
|------x-x-x------x-x-x---------x-x-x-0---|
|-777-121212-999-101010-101010-121212-0---|
|-777--------999--------101010--------0---|

|-----------------------------------------|
|-----------------------------------------|
|-----141414-----121212--------141414-----|
|------x-x-x------x-x-x---------x-x-x-5---|
|-777-121212-999-101010-101010-121212-5---|
|-777--------999--------101010--------5---|

|-----------------|
|-----------------|
|-----------------|
|-0------3---5----|
|-0------3---5----|
|-0------3---5----|


  (repeat 4 times)
|----------------------------------------------------------------|
|----------------------------------------------------------------|
|-222222222222-555555--------------------------------------------|
|-222222222222-555555-555555-0---0--0-0---0--0-8---8--8-5---5--5-|
|-000000000000-333333-555555-0---0--0-0---0--0-8---8--8-5---5--5-|
|---------------------555555-0---0--0-0---0--0-8---8--8-5---5--5-|


  (repeat 2 times)
|-----------------------------------------|
|-----------------------------------------|
|-----141414-----121212--------141414-----|
|------x-x-x------x-x-x---------x-x-x-0---|
|-777-121212-999-101010-101010-121212-0---|
|-777--------999--------101010--------0---|

End.
Suggest correction
Give kudos to tab author, rate the tab!
1 2 3 4 5
comments
print report bad tab
guest
You may want to rate the tab now too:
select rating
Wanna post a correction for this tab? Suggest correction