Oops, an error
Loading. Please wait.

Running Away Tab

version 5
version 5

Interactive

2,262 views 6 this week
1 commentread comment
1 2 3 4 5
accurate
x 5
add to favorites
launch autoscroll
font size
0
reset
how to read this tab
guitar tuner
Autoscroll
slow
fast
+/-
esc
set tempo
stop
Help us to improve Ultimate-Guitar.com Take our survey!
×
Author
#----------------------------------PLEASE NOTE---------------------------------#
#This file is the author's own work and represents their interpretation of the #
#song. You may only use this file for private study, scholarship, or research. #
#------------------------------------------------------------------------------##

                                  RUNNING AWAY
                            As recorded by Hoobastank
                        (From the 2001 Album HOOBASTANK)

Words and Music by Doug Robb, Daniel Estrin, Markku Lappalainen, and Chris Hesse
Arranged by Jimmy K

          Am                   A5                  Asus2                 G5
     7 7 10 x x x          7 7 7 x x x          7 7 9 x x x          5 5 5 x x x

         Gsus2                  G                   F5                  Fsus2
      5 5 7 x x x          5 5 9 x x x          3 3 3 5 x x          3 3 5 x x x

      Cmaj7sus4/F            Cmaj7/F                G/B                  C5
      3 3 3 4 x x          3 3 5 5 0 0         9 10 9 x x x        10 10 10 x x x

          D5               D5(type 2)               E5                 Amadd2
      0 0 0 x x x          0 0 0 2 3 x          2 2 2 x x x          x x 7 5 0 0

          Em                  Dsus2              Fmaj7sus4               G6
      x x 2 0 0 0          x x 0 2 3 0          x x 3 5 0 0          x x 5 7 0 0

Gtr I (D A D G B E) - 'Untitled'
Gtr II (D A D G B E) - 'Untitled'
Gtr III (D A D G B E) - 'Untitled'

 Intro
  Moderately Fast Q.=132
  Am       A5    Asus2
 12/8
  Gtr I
|----------------------------|
|----------------------------|
|----------------------------|
|-10-10-10-7-x-x-9-9-9-9-x-x-|
|--7--7--7-7-x-x-7-7-7-7-x-x-|
|--7--7--7-7-x-x-7-7-7-7-x-x-|


  Am       A5    Asus2         G5    Gsus2 G
|----------------------------|-------------------------|
|----------------------------|-------------------------|
|----------------------------|-------------------------|
|-10-10-10-7-x-x-9-9-9-9-x-x-|-5-5-5-7-x-x-9-9-9-9-x-x-|
|--7--7--7-7-x-x-7-7-7-7-x-x-|-5-5-5-5-x-x-5-5-5-5-x-x-|
|--7--7--7-7-x-x-7-7-7-7-x-x-|-5-5-5-5-x-x-5-5-5-5-x-x-|


                            1st Verse
  F5    Fsus2 F5    Cmaj7sus4Am       A5    Asus2
 12/8
|-------------------------||----------------------------|
|-------------------------||----------------------------|
|-------------5-5-5-4-----||----------------------------|
|-3-3-3-5-x-x-5-5-5-3-x-x-||-10-10-10-7-x-x-9-9-9-9-x-x-|
|-3-3-3-3-x-x-3-3-3-3-x-x-||--7--7--7-7-x-x-7-7-7-7-x-x-|
|-3-3-3-3-x-x-3-3-3-3-x-x-||--7--7--7-7-x-x-7-7-7-7-x-x-|


  Am       A5    Asus2
|----------------------------|
|----------------------------|
|----------------------------|
|-10-10-10-7-x-x-9-9-9-9-x-x-|
|--7--7--7-7-x-x-7-7-7-7-x-x-|
|--7--7--7-7-x-x-7-7-7-7-x-x-|


  G5    Gsus2 G             F5    Fsus2 F5    Cmaj7susAmF
|-------------------------|-------------------------|
|-------------------------|-------------------------|
|-------------------------|-------------5-5-5-4-----|
|-5-5-5-7-x-x-9-9-9-9-x-x-|-3-3-3-5-5-5-5-5-5-3-x-x-|
|-5-5-5-5-x-x-5-5-5-5-x-x-|-3-3-3-3-3-3-3-3-3-3-x-x-|
|-5-5-5-5-x-x-5-5-5-5-x-x-|-3-3-3-3-3-3-3-3-3-3-x-x-|


           A5    Asus2
|-----------------------------|
|-----------------------------|
|-----------------------------|
|-10-10-10-7-x-x-9-9-9-9-x-x--|
|--7--7--7-7-x-x-7-7-7-7-x-x--|
|--7--7--7-7-x-x-7-7-7-7-x-x--|


  Am       A5    Asus2         G5    Gsus2               Cmaj7/F
|----------------------------|-------------------------|-^0----|
|----------------------------|-------------------------|-^0----|
|----------------------------|-------------------------|-^5----|
|-10-10-10-7-x-x-9-9-9-9-x-x-|-5-5-5-7-x-x-7--7-(7)----|-^5----|
|--7--7--7-7-x-x-7-7-7-7-x-x-|-5-5-5-5-x-x-5--5-(5)----|-^3----|
|--7--7--7-7-x-x-7-7-7-7-x-x-|-5-5-5-5-x-x-5--5-(5)-0--|-^3----|


  Am       A5    Asus2         Am       A5    Asus2
 12/8
  Gtrs I, II
|----------------------------|----------------------------|
|----------------------------|----------------------------|
|----------------------------|----------------------------|
|-10-10-10-7-x-x-9-9-9-9-x-x-|-10-10-10-7-x-x-9-9-9-9-x-x-|
|--7--7--7-7-x-x-7-7-7-7-x-x-|--7--7--7-7-x-x-7-7-7-7-x-x-|
|--7--7--7-7-x-x-7-7-7-7-x-x-|--7--7--7-7-x-x-7-7-7-7-x-x-|


  G5    Gsus2 G             F5    Fsus2 F5    Cmaj7susAmF
|-------------------------|-------------------------|
|-------------------------|-------------------------|
|-------------------------|-------------5-5-5-4-----|
|-5-5-5-7-x-x-9-9-9-9-x-x-|-3-3-3-5-x-x-5-5-5-3-x-x-|
|-5-5-5-5-x-x-5-5-5-5-x-x-|-3-3-3-3-x-x-3-3-3-3-x-x-|
|-5-5-5-5-x-x-5-5-5-5-x-x-|-3-3-3-3-x-x-3-3-3-3-x-x-|


           A5    Asus2
|-----------------------------|
|-----------------------------|
|-----------------------------|
|-10-10-10-7-x-x-9-9-9-9-x-x--|
|--7--7--7-7-x-x-7-7-7-7-x-x--|
|--7--7--7-7-x-x-7-7-7-7-x-x--|


  Am       A5    Asus2         Am    A5    Asus2
 12/8
|----------------------------|-------------------------|
|----------------------------|-------------------------|
|----------------------------|-------------------------|
|-10-10-10-7-x-x-9-9-9-9-x-x-|-5-5-5-7-x-x-9-9-9-9-x-x-|
|--7--7--7-7-x-x-7-7-7-7-x-x-|-5-5-5-5-x-x-5-5-5-5-x-x-|
|--7--7--7-7-x-x-7-7-7-7-x-x-|-5-5-5-5-x-x-5-5-5-5-x-x-|


                            Chorus
                          $
                             A5       G/B           C5          D5
  Gtr II
|-------------------------||----------------------|--------------------------|
|-------------------------||----------------------|--------------------------|
|-------------------------||----------------------|--------------------------|
|-----------------x-x-x-x-||-7---7--7--9----9---9-|-10---10--10-0--0-(0)-0---|
|-----------------x-x-x-x-||-7---7--7-10---10--10-|-10---10--10-0--0-(0)-0---|
|-----------------x-x-x-x-||-7---7--7--9----9---9-|-10---10--10-0--0-(0)-0---|
|
| Gtr I
|-------------------------||----------------------|--------------------------|
|-------------------------||----------------------|--------------------------|
|-5-5-5-5-5-5-5-5-5-5-5-5-||----------------------|--------------------------|
|-5-5-5-5-5-5-5-5-5-5-5-5-||-7---7--7--9----9---9-|-10---10--10-0--0-(0)-0---|
|-3-3-3-3-3-3-3-3-3-3-3-3-||-7---7--7-10---10--10-|-10---10--10-0--0-(0)-0---|
|-3-3-3-3-3-3-3-3-3-3-3-3-||-7---7--7--9----9---9-|-10---10--10-0--0-(0)-0---|


  F5                 C5          G5         A5      E5
|------------------|----------------------|------------------|
|------------------|----------------------|------------------|
|------------------|----------------------|------------------|
|-3---3---3---3--3-|-10---10--10-5---5--5-|-7---7---2---2----|
|-3---3---3---3--3-|-10---10--10-5---5--5-|-7---7---2---2----|
|-3---3---3---3--3-|-10---10--10-5---5--5-|-7---7---2---2----|


                                                      To Coda
  C5        D5        F5                  C5          G5
|-------------------|-------------------|-----------------------||
|-------------------|-------------------|-----------------------||
|-------------------|-------------------|-----------------------||
|-10---10---0---0---|-3---3--3-3--3-3---|-10---10--10-5---5--5--||
|-10---10---0---0---|-3---3--3-3--3-3---|-10---10--10-5---5--5--||
|-10---10---0---0---|-3---3--3-3--3-3---|-10---10--10-5---5--5--||


  Gtr I
|-------0-----------0-----|-------0-----------0-----||
|-----0---0-------0---0---|-----0---0-------0---0---||
|---5-------5---5-------0-|---5-------5---5-------0-||
|-7-----------7-----------|-7-----------7-----------||
|-------------------------|-------------------------||
|-------------------------|-------------------------||
|
|-------------------------|-------------------------||
|-------------------------|-------------------------||
|-------------------------|-------------------------||
|-------------------------|-------------------------||
|-------------------------|-------------------------||
|-------------------------|-------------------------||


 2nd Verse
  Am       A5      Asus2
  Gtr III
|------------------0--------------|
|--------------0-------0-(0)------|
|--------5-(5)---------------5----|
|--7------------------------------|
|---------------------------------|
|---------------------------------|
|
| Gtr I
|---------------------------------|
|---------------------------------|
|---------------------------------|
|-10-10-10--7--x-x-9-9-9--9--x-x--|
|--7--7--7--7--x-x-7-7-7--7--x-x--|
|--7--7--7--7--x-x-7-7-7--7--x-x--|


  Am       A5      Asus2
 12/8
|------------------0-------------|
|--------------0-------0-(0)-----|
|--------5-(5)---------------0---|
|--7-----------------------------|
|--------------------------------|
|--------------------------------|
|
| Gtr I
|--------------------------------|
|--------------------------------|
|--------------------------------|
|-10-10-10--7--x-x-9-9-9--9--x-x-|
|--7--7--7--7--x-x-7-7-7--7--x-x-|
|--7--7--7--7--x-x-7-7-7--7--x-x-|


  G5    Gsus2   G               F5    Fsus2   F5
|---------------0-------------|---------------0-------------|
|-----3-(3)---------------3---|-----------0-------0-(0)-----|
|-----------4-------4-(4)-----|-----5-(5)---------------5---|
|-5---------------------------|-3---------------------------|
|-----------------------------|-----------------------------|
|-----------------------------|-----------------------------|
|
|-----------------------------|-----------------------------|
|-----------------------------|-----------------------------|
|-----------------------------|---------------5-5-5--4------|
|-5-5-5--7--x-x-9-9-9--9--x-x-|-3-3-3--5--x-x-5-5-5--3--x-x-|
|-5-5-5--5--x-x-5-5-5--5--x-x-|-3-3-3--3--x-x-3-3-3--3--x-x-|
|-5-5-5--5--x-x-5-5-5--5--x-x-|-3-3-3--3--x-x-3-3-3--3--x-x-|


    Am       A5      Asus2
    Gtr III
|--------------------0-------------|
|----------------0-------0-(0)-----|
|----------5-(5)---------------5---|
|----7-----------------------------|
|----------------------------------|
|----------------------------------|
|
| Gtr I
|----------------------------------|
|----------------------------------|
|----------------------------------|
|---10-10-10--7--x-x-9-9-9--9--x-x-|
|----7--7--7--7--x-x-7-7-7--7--x-x-|
|----7--7--7--7--x-x-7-7-7--7--x-x-|
|
| Gtr II
|----------------------------------|
|----------------------------------|
|----------------------------------|
|-5S=7-----7-(7)-7---7-------------|
|----------------------------------|
|----------------------------------|


  Am        A5      Asus2           G5    Gsus2   G
|-------------------0-------------|---------------0-------------|
|---------------0-------0-(0)-----|-----3-(3)---------------3---|
|---------5-(5)---------------0---|-----------4-------4-(4)-----|
|--7------------------------------|-5---------------------------|
|---------------------------------|-----------------------------|
|---------------------------------|-----------------------------|
|
|---------------------------------|-----------------------------|
|---------------------------------|-----------------------------|
|---------------------------------|-----------------------------|
|-10--10-10--7--x-x-9-9-9--9--x-x-|-5-5-5--7--x-x-9-9-9--9--x-x-|
|--7---7--7--7--x-x-7-7-7--7--x-x-|-5-5-5--5--x-x-5-5-5--5--x-x-|
|--7---7--7--7--x-x-7-7-7--7--x-x-|-5-5-5--5--x-x-5-5-5--5--x-x-|
|
|---------------------------------|-----------------------------|
|---------------------------------|-----------------------------|
|---------------------------------|-----------------------------|
|-(7)-----------------------------|-5---------------------------|
|---------------------------------|-----------------------------|
|---------------------------------|-----------------------------|


  F5    Fsus2   F5              Am        A5      Asus2
|---------------0-------------|-------------------0-------------|
|-----------0-------0-(0)-----|---------------0-------0-(0)-----|
|-----5-(5)---------------5---|---------5-(5)---------------5---|
|-3---------------------------|--7------------------------------|
|-----------------------------|---------------------------------|
|-----------------------------|---------------------------------|
|
|-----------------------------|---------------------------------|
|-----------------------------|---------------------------------|
|---------------5-5-5--4------|---------------------------------|
|-3-3-3--5--x-x-5-5-5--3--x-x-|-10--10-10--7--x-x-9-9-9--9--x-x-|
|-3-3-3--3--x-x-3-3-3--3--x-x-|--7---7--7--7--x-x-7-7-7--7--x-x-|
|-3-3-3--3--x-x-3-3-3--3--x-x-|--7---7--7--7--x-x-7-7-7--7--x-x-|
|
|-----------------------------|---------------------------------|
|-----------------------------|---------------------------------|
|-----------------------------|---------------------------------|
|-3---------------------------|-(3)-----------------------------|
|-----------------------------|---------------------------------|
|-----------------------------|---------------------------------|


  Am       A5      Asus2
|-------------------0---------------|
|--------------0---------0-(0)------|
|--------5-(5)-----------------0----|
|--7--------------------------------|
|-----------------------------------|
|-----------------------------------|
|
|-----------------------------------|
|-----------------------------------|
|-----------------------------------|
|-10-10-10--7--x-x--9--9-9--9--x-x--|
|--7--7--7--7--x-x--7--7-7--7--x-x--|
|--7--7--7--7--x-x--7--7-7--7--x-x--|
|
|-----------------------------------|
|-----------------------------------|
|-----------------------------------|
|--3---------------(3)-----------0--|
|-----------------------------------|
|-----------------------------------|


  G5    Gsus2   G               F5    Fsus2   F5
|---------------0-------------|---------------0-------------|
|-----3-(3)---------------3---|-----------0-------0-(0)-----|
|-----------4-------4-(4)-----|-----5-(5)---------------5---|
|-5---------------------------|-3---------------------------|
|-----------------------------|-----------------------------|
|-----------------------------|-----------------------------|
|
|-----------------------------|-----------------------------|
|-----------------------------|-----------------------------|
|-----------------------------|---------------5-5-5--4------|
|-5-5-5--7--x-x-9-9-9--9--x-x-|-3-3-3--5--x-x-5-5-5--3--x-x-|
|-5-5-5--5--x-x-5-5-5--5--x-x-|-3-3-3--3--x-x-3-3-3--3--x-x-|
|-5-5-5--5--x-x-5-5-5--5--x-x-|-3-3-3--3--x-x-3-3-3--3--x-x-|
|
|-----------------------------|-----------------------------|
|-----------------------------|-----------------------------|
|-----------------------------|-----------------------------|
|-0---------------------------|---------------0-------------|
|-----------------------------|-3---------------------------|
|-----------------------------|-----------------------------|


  Am       A5      Asus2
|------------------0--------------|
|--------------0-------0-(0)------|
|--------5-(5)---------------5----|
|--7------------------------------|
|---------------------------------|
|---------------------------------|
|
|---------------------------------|
|---------------------------------|
|---------------------------------|
|-10-10-10--7--x-x-9-9-9--9--x-x--|
|--7--7--7--7--x-x-7-7-7--7--x-x--|
|--7--7--7--7--x-x-7-7-7--7--x-x--|
|
|---------------------------------|
|---------------------------------|
|---------------------------------|
|--2------------------------------|
|---------------------------------|
|---------------------------------|


  Am        A5      Asus2
|--------------------0--------------|
|---------------0---------0-(0)-----|
|---------5-(5)-----------------0---|
|--7--------------------------------|
|-----------------------------------|
|-----------------------------------|
|
|-----------------------------------|
|-----------------------------------|
|-----------------------------------|
|-10--10-10--7--x-x--9--9-9--9--x-x-|
|--7---7--7--7--x-x--7--7-7--7--x-x-|
|--7---7--7--7--x-x--7--7-7--7--x-x-|
|
|-----------------------------------|
|-----------------------------------|
|-----------------------------------|
|-(2)---------------(2)-----(2)-3---|
|-----------------------------------|
|-----------------------------------|


                                             D.S. al Coda
  G5    Gsus2   G
|----------------0----------------|-------------0------------||
|-----3-(3)-------------------3---|----------0-----0-(0)-----||
|-----------4----------4--(4)-----|----5-(5)-------------5---||
|-5-------------------------------|-3------------------------||
|---------------------------------|--------------------------||
|---------------------------------|--------------------------||
|
|---------------------------------|--------------------------||
|---------------------------------|--------------------------||
|---------------------------------|--------------------------||
|-5-5-5--7--x-x--9--9--9---9--x-x-|--------------------------||
|-5-5-5--5--x-x--5--5--5---5--x-x-|--------------------------||
|-5-5-5--5--x-x--5--5--5---5--x-x-|--------------------------||
|
|---------------------------------|--------------------------||
|---------------------------------|--------------------------||
|---------------------------------|--------------------------||
|-0-------------(0)---(0)-(0)-2---|--------------------------||
|---------------------------------|-3------------------------||
|---------------------------------|--------------------------||


   Bridge
    &
    Amadd2
    Gtr I
||--------0-----------0-----|
||o-----0---0-------0---0---|
||----5-------5---5-------5-|
||--7-----------7-----------|
||o-------------------------|
||--------------------------|


                            Em
|-------0-----------0-----|-------0-----------0-----|
|-----0---0-------0---0---|-----0---0-------0---0---|
|---5-------5---5-------5-|---0-------0---0-------0-|
|-7-----------7-----------|-2-----------2-----------|
|-------------------------|-------------------------|
|-------------------------|-------------------------|


                            Amadd2
  Gtr II
|-------------------------|---------------------------|
|-------------------------|---------------------------|
|-------------------------|-------0-----(0)-----------|
|-------------------------|---------------------------|
|-------------------------|---------------------------|
|-------------------------|---------------------------|
|
| Gtr I
|-------0-----------0-----|-------0-------------0-----|
|-----0---0-------0---0---|-----0---0---------0---0---|
|---0-------0---0-------0-|---5-------5-----5-------5-|
|-2-----------2-----------|-7------------7------------|
|-------------------------|---------------------------|
|-------------------------|---------------------------|


|----------------------------|
|----------------------------|
|-(0)------------------------|
|----------------------------|
|----------------------------|
|----------------------------|
|
|---------0-----------0------|
|-------0---0-------0---0----|
|-----5-------5---5-------5--|
|--7------------7------------|
|----------------------------|
|----------------------------|


  1.
  Dsus2
|-<12>---<12>-(<12>)-<12>---<12>---<12>-(<12>)-<12>---|
|-----------------------------------------------------|
|-----------------------------------------------------|
|-----------------------------------------------------|
|-----------------------------------------------------|
|-----------------------------------------------------|
|
|----------------0-------------------------0----------|
|----------3-----------3-------------3-----------3----|
|------2------------------2------2------------------2-|
|---0-------------------------0-----------------------|
|-----------------------------------------------------|
|-----------------------------------------------------|


                                    2.
  Fmaj7sus4        G6               Dsus2
|-(<12>)-------------------------||-----------------------------|
|-------------------------------o||-----------------------------|
|--------------------------------||-0-----------(0)-----x\------|
|--------------------------------||-----------------------------|
|-------------------------------o||-----------------------------|
|--------------------------------||-----------------------------|
|
|------------0------------0------||-------0-------------0-------|
|----------0---0--------0---0---o||-----3---3---------3----3----|
|--------5-------5----7-------7--||---2-------2-----2--------2--|
|----3-------------/5------------||-0------------0--------------|
|-------------------------------o||-----------------------------|
|--------------------------------||-----------------------------|


                            Pre-Chorus
  F5          G5             A5      D5A5               D5A5       G5
|-------------------------||------------------|------------------------|
|-------------------------||------------------|------------------------|
|-------------------------||------------------|------------------------|
|-3-----3-----5---x-x-x-x-||-7-7--7----7------|-7-7--7----7--7-(7)-5---|
|-3-----3-----5---x-x-x-x-||-7-7--7--0-7------|-7-7--7--0-7--7-(7)-5---|
|-3-----3-----5---x-x-x-x-||-7-7--7--0-7------|-7-7--7--0-7--7-(7)-5---|
|
|-------0-----------0-----||------------------|------------------------|
|-----0---0-------0---0---||------------------|------------------------|
|---5-------5---7-------7-||------------------|------------------------|
|-3-----------5-----------||------------------|------------------------|
|-------------------------||------------------|------------------------|
|-------------------------||------------------|------------------------|


  E5      D5E5                   D5E5       G5   A5      D5A5
  Gtr II
|----------------------|-----------------------|-------------------|
|----------------------|-----------------------|-------------------|
|----------------------|-----------------------|-------------------|
|-2-2--2--0-2--x-x-x-x-|-2-2--2--0-2--2-(2)-5--|-7-7--7----7-------|
|-2-2--2--0-2--x-x-x-x-|-2-2--2--0-2--2-(2)-5--|-7-7--7--0-7-------|
|-2-2--2--0-2--x-x-x-x-|-2-2--2--0-2--2-(2)-5--|-7-7--7--0-7-------|


          D5A5    D5   D5(type 2)          F5        G5
|--------------------|-------------------|------------------------||
|--------------------|-3---3--3-3---3--3-|------------------------||
|--------------------|-2---2--2-2---2--2-|------------------------||
|-7-7--7----7---7----|-0---0--0-0---0--0-|-3---3-3-3-5-5-5-5-5----||
|-7-7--7--0-7---7-0--|-0---0--0-0---0--0-|-3---3-3-3-5-5-5-5-5----||
|-7-7--7--0-7---7-0--|-0---0--0-0---0--0-|-3---3-3-3-5-5-5-5-5-0--||


   Outro Chorus
    A5       G/B           C5          D5            F5
    Gtr II
||-----------------------|-------------------------|------------------|
||o----------------------|-------------------------|------------------|
||-----------------------|-------------------------|------------------|
||--7---7--7--9----9---9-|-10---10--10-0--0-(0)-0--|-3---3---3---3--3-|
||o-7---7--7-10---10--10-|-10---10--10-0--0-(0)-0--|-3---3---3---3--3-|
||--7---7--7--9----9---9-|-10---10--10-0--0-(0)-0--|-3---3---3---3--3-|


  C5          G5         A5      E5        C5        D5
|----------------------|-----------------|--------------------|
|----------------------|-----------------|--------------------|
|----------------------|-----------------|--------------------|
|-10---10--10-5---5--5-|-7---7---2---2---|-10---10---0---0----|
|-10---10--10-5---5--5-|-7---7---2---2---|-10---10---0---0----|
|-10---10--10-5---5--5-|-7---7---2---2---|-10---10---0---0----|


                     1.                        2.
  F5                  C5          G5           C5        G5
|-------------------|-----------------------||------------------|--------*|
|-------------------|----------------------o||------------------|--------*|
|-------------------|-----------------------||------------------|--------*|
|-3---3--3-3--3-3---|-10---10--10-5---------||-10---10---5------|-(5)----*|
|-3---3--3-3--3-3---|-10---10--10-5---3--3-o||-10---10---5------|-(5)----*|
|-3---3--3-3--3-3---|-10---10--10-5---------||-10---10---5------|-(5)----*|


Tablature Legend
----------------
 h   - hammer-on
 p   - pull-off
 b   - bend
 pb  - pre-bend
 r   - bend release (if no number after the r, then release immediately)
 /\  - slide into or out of (from/to "nowhere")
 s   - legato slide
 S   - shift slide
  - natural harmonic
[n]  - artificial harmonic
n(n) - tapped harmonic
 ~   - vibrato
 tr  - trill
 T   - tap
 TP  - trem. picking
 PM  - palm muting
\n/  - tremolo bar dip; n = amount to dip
 \n  - tremolo bar down
 n/  - tremolo bar up
/n\  - tremolo bar inverted dip
 =   - hold bend; also acts as connecting device for hammers/pulls
 <>  - volume swell (louder/softer)
 x   - on rhythm slash represents muted slash
 o   - on rhythm slash represents single note slash

Misc Legend
-----------
 |  - bar
||  - double bar
||o - repeat start
o|| - repeat end
*|  - double bar (ending)
 :  - bar (freetime)
 $  - Segno
 &  - Coda
Tempo markers -  = BPM(8/16=s8/s16), where s8 = swing 8ths, s16 = swing 16ths


***************************************************************************************
* Generated using Power Tab Editor by Brad Larsen - http://powertab.guitarnetwork.org *
***************************************************************************************
Suggest correction
What's this?
You can suggest a correction to this tab. Community and Mods will review your correction and vote to approve or reject it.
comments
print report bad tab
1 comment total.
0 reply
DreamScaperX 22 wrote on September 26 2004, 12:00 am

98-99% acurate
good try but this is a powertab export... im positive...
if its not and you just tab that way.. then im sorry... but im sure of it...

guest
You may want to rate the tab now too:
select rating
Please do not post tabs as comments. Select "correction" instead!