Oops, an error
Loading. Please wait.

The Reason Tab

version 3
16,785 views 9 this week
2 commentsread comments
1 2 3 4 5
x 6
add to favorites
launch autoscroll
font size
0
reset
how to read this tab
guitar tuner
backing track
0:00
0:00
×
Best way to learn
"The Reason"
Autoscroll
slow
fast
+/-
esc
set tempo
stop
Author
The Reason
Hoobastank
tabbed by: matt_tml_

this song is pretty easy to play and its a great song.
i hope u guys enjoy it. input is appreciated and could you please rate the tab. thanx

intro/verse guitar 1
e-------------------------------------------------11-12-(x8)---
b--------------------------------------------------------------
g--------------------------------------------------------------
d--------------------------------------------------------------
a -7-(x48)-4-(x16)-7-(x16)-4-(x16)-0-(x16)---------------------
e--------------------------------------------------------------

intro/verse guitar 2

riff a               riff b     
e---------------l           1------------1
b--------9------l           1------5-----1
g-9-11-----8----l           1-6-8---4----1
d---------------l           1------------1
a---------------l           1------------1
e---------------l       x8 l-------------1      x8

riff a x4
riff b x16

chorus
e-----------------------------------
b-----------------------------------
g-9--------6--------2---------4-----
d-9--------6--------2---------4-----
a-7-(x16)--4-(x16)--0-(x16----2-(x16)
e-----------------------------------

intro/verse x1
chorus x2
intro/verse x1
chorus x2


fin
Suggest correction
comments
print report bad tab
2 comments total.
0 reply
PAsistem 195 Apr 09, 2004 08:00 PM

u actually counted all those quarter notes?

0 reply
afifury69 40 Apr 27, 2004 08:00 PM

nice try dude

guest
You may want to rate the tab now too:
select rating
Wanna post a correction for this tab? Suggest correction