Oops, an error
Loading. Please wait.
16,332 views 12 this week
no commentswrite comment
1 2 3 4 5
x 5
add to favorites
×
Save as Personal and add changes to this tab that will be seen only by you. Learn more ›
×
You can save this tab as Personal to edit and correct it or add notes. All changes will be seen only by you. Learn more »
launch autoscroll
font size
0
reset
how to read this tab
guitar tuner
backing track
0:00
0:00
edit
Autoscroll
slow
fast
+/-
esc
set tempo
stop
Author
Difficulty
----------------------------------------------------------------------------
                             SONG NAME - BAND NAME
----------------------------------------------------------------------------
Tabbed by: Daniel Kosakowski

Tuning: Standard(EADGBe)

e|--------------------------------------------------------------------------|
B|------------------9---------------9---------------9---------------9-------|
G|-----------9--11-----8-----9--11-----8-----9--11-----8-----9--11-----8----|
D|--------------------------------------------------------------------------|
A|---7(x16)-----------------------------------------------------------------|
E|--------------------------------------------------------------------------|

e|--------------------------------------------------------------------------|
B|-----7--9-------------7--9-------------7--9-------------7--9--------------|
G|--9--------8-------9--------8-------9--------8-------9--------8-----------|
D|--------------------------------------------------------------------------|
A|--------------------------------------------------------------------------|
E|--------------------------------------------------------------------------|

e|--------------------------------------------------------------------------|
B|-----4--5-------------4--5-------------4--5-------------4--5--------------|
G|--6--------4-------6--------4-------6--------4-------6--------4-----------|
D|--------------------------------------------------------------------------|
A|--------------------------------------------------------------------------|
E|--------------------------------------------------------------------------|


e|--------------------------------------------------------------------------|
B|---------9----------------9-----------------9---------------9-------------|
G|--9--11-----8------9--11-----8-------9--11-----8-----9--11-----8----------|
D|--------------------------------------------------------------------------|
A|--------------------------------------------------------------------------|
E|--------------------------------------------------------------------------|

e|--------------------------------------------------------------------------|
B|-----7--9-------------7--9-------------7--9-------------7--9--------------|
G|--9--------8-------9--------8-------9--------8-------9--------8-----------|
D|--------------------------------------------------------------------------|
A|--------------------------------------------------------------------------|
E|--------------------------------------------------------------------------|

e|--------------------------------------------------------------------------|
B|-----4--5-------------4--5-------------4--5-------------4--5--------------|
G|--6--------4-------6--------4-------6--------4-------6--------4-----------|
D|--------------------------------------------------------------------------|
A|--------------------------------------------------------------------------|
E|--------------------------------------------------------------------------|

e|--11h12(x16)--------------------------------------------------------------|
B|--------------------------------------------------------------------------|
G|--------------------------------------------------------------------------|
D|--------------------------------------------------------------------------|
A|--------------------------------------------------------------------------|
E|--------------------------------------------------------------------------|


CHORUS
e|------------------------------------------------------==------------------|
B|--------------------------------------------------------------------------|
G|1—1—11—1-1-(x2)----6-6-66-6-6-(x2)----------------------------------------|
D|2-2-22-2-2---------6-6-66-6-6---------7-7-77-7-7(x2)----9-9-99-9-9(x2)----|
A|2-2-22—2-2---------4-4-44-4-4---------7-7-77-7-7--------9-9-99-9-9--------|
E|--------------------------------------5-5-55-5-5--------7-7-77-7-7--------|

e|--------------------------------------------------------------------------|
B|---------9----------------9-----------------9---------------9-------------|
G|--9--11-----8------9--11-----8-------9--11-----8-----9--11-----8----------|
D|--------------------------------------------------------------------------|
A|--------------------------------------------------------------------------|
E|--------------------------------------------------------------------------|

e|--------------------------------------------------------------------------|
B|-----7--9-------------7--9-------------7--9-------------7--9--------------|
G|--9--------8-------9--------8-------9--------8-------9--------8-----------|
D|--------------------------------------------------------------------------|
A|--------------------------------------------------------------------------|
E|--------------------------------------------------------------------------|

e|--------------------------------------------------------------------------|
B|---------9----------------9-----------------9---------------9-------------|
G|--9--11-----8------9--11-----8-------9--11-----8-----9--11-----8----------|
D|--------------------------------------------------------------------------|
A|--------------------------------------------------------------------------|
E|--------------------------------------------------------------------------|

e|--------------------------------------------------------------------------|
B|-----7--9-------------7--9-------------7--9-------------7--9--------------|
G|--9--------8-------9--------8-------9--------8-------9--------8-----------|
D|--------------------------------------------------------------------------|
A|--------------------------------------------------------------------------|
E|--------------------------------------------------------------------------|

e|--------------------------------------------------------------------------|
B|-----4--5-------------4--5-------------4--5-------------4--5--------------|
G|--6--------4-------6--------4-------6--------4-------6--------4-----------|
D|--------------------------------------------------------------------------|
A|--------------------------------------------------------------------------|
E|--------------------------------------------------------------------------|

e|--11h12(x16)--------------------------------------------------------------|
B|--------------------------------------------------------------------------|
G|--------------------------------------------------------------------------|
D|--------------------------------------------------------------------------|
A|--------------------------------------------------------------------------|
E|--------------------------------------------------------------------------|

CHORUS
e|--------------------------------------------------------------------------|
B|--------------------------------------------------------------------------|
G|1—1—11—1-1-(x2)----6-6-66-6-6-(x2)----------------------------------------|
D|2-2-22-2-2---------6-6-66-6-6---------7-7-77-7-7(x2)----9-9-99-9-9(x2)----|
A|2-2-22—2-2---------4-4-44-4-4---------7-7-77-7-7--------9-9-99-9-9--------|
E|--------------------------------------5-5-55-5-5--------7-7-77-7-7--------|

BRIDGE
And the reason is you!!!(x4)
e|--------------------------------------------------------------------------|
B|--------------------------------------------------------------------------|
G|-------------1-1-1-1-----------------1-1-1-1-------1---1---1---1----------|
D|-7-7-7-7-----1-1-1-1-----7-7-7-7-----1-1-1-1-------2---2---2---2----------|
A|-7-7-7-7-----2-2-2-2-----7-7-7-7-----2-2-2-2-------2---2---2---2----------|
E|-5-5-5-5-----------------5-5-5-5------------------------------------------|

e|--------------------------------------------------------------------------|
B|---------9----------------9-----------------9---------------9-------------|
G|--9--11-----8------9--11-----8-------9--11-----8-----9--11-----8----------|
D|--------------------------------------------------------------------------|
A|--------------------------------------------------------------------------|
E|--------------------------------------------------------------------------|

e|--------------------------------------------------------------------------|
B|-----7--9-------------7--9-------------7--9-------------7--9--------------|
G|--9--------8-------9--------8-------9--------8-------9--------8-----------|
D|--------------------------------------------------------------------------|
A|--------------------------------------------------------------------------|
E|--------------------------------------------------------------------------|

e|--------------------------------------------------------------------------|
B|-----4--5-------------4--5-------------4--5-------------4--5--------------|
G|--6--------4-------6--------4-------6--------4-------6--------4-----------|
D|--------------------------------------------------------------------------|
A|--------------------------------------------------------------------------|
E|--------------------------------------------------------------------------|

e|--11h12(x16)--------------------------------------------------------------|
B|--------------------------------------------------------------------------|
G|--------------------------------------------------------------------------|
D|--------------------------------------------------------------------------|
A|--------------------------------------------------------------------------|
E|--------------------------------------------------------------------------|

CHORUS(x2)
e|--------------------------------------------------------------------------|
B|--------------------------------------------------------------------------|
G|1—1—11—1-1-(x2)----6-6-66-6-6-(x2)----------------------------------------|
D|2-2-22-2-2---------6-6-66-6-6---------7-7-77-7-7(x2)----9-9-99-9-9(x2)----|
A|2-2-22—2-2---------4-4-44-4-4---------7-7-77-7-7--------9-9-99-9-9--------|
E|--------------------------------------5-5-55-5-5--------7-7-77-7-7--------|

END ON
e|----|
B|----|
G|-1--|
D|-1--|
A|-2--|
E|----|

| /  slide up
|   slide down
| h  hammer-on
| p  pull-off
| ~  vibrato
| +  harmonic
| x  Mute note
============================================================================

            
            
Suggest correction
Creating personal tab
Creating personal tab
You can edit any tab online and save it as your Personal.

You can edit, replace or remove any tab part or add personal notes – all changes will be seen only by you.

Personal tabs can be accessed anytime from any device, even offline.
Learn more »
comments
print report bad tab
guest
You may want to rate the tab now too:
select rating
Wanna post a correction for this tab? Suggest correction