Oops, an error
Loading. Please wait.

Without A Fight bass

version 1
version 1

Whole song

Interactive

926 views 1 this week
1 commentread comment
1 2 3 4 5
1 last vote to show rating
add to favorites
×
Save as Personal and add changes to this tab that will be seen only by you. Learn more ›
×
You can save this tab as Personal to edit and correct it or add notes. All changes will be seen only by you. Learn more »
launch autoscroll
font size
0
reset
guitar tuner
edit
Autoscroll
slow
fast
+/-
esc
set tempo
stop
Author
"Without A Fight"

Drop D 4 String Tuning

Intro and Verse
G|---------------------------------------|
D|---------------------------------------|
A|-------------------------------5-5-5-5-|
D|-0-3-5-0-----0-3-5-0---3-3-3-3---------| x6

Pre-Chorus
G|----------------------------------------|
D|----------------------------------------|
A|----------------------------------------|
D|-2--2-2--2-2--2-2-2--3--3-3--3-3--3-3-3-| x2

G|-----------|
D|-----------|
A|-----------|
D|-3-3-3-3-3-|

Chorus x2
G|-----------------------------------------------------------------|
D|-----------------------------------------------------------------|
A|---------------------------------5-5-5-5-5-5-5-5-5-5-5-5-5-5-5-5-|
D|-0-0-0-0-0-0-0-0-0-0-0-0-0-0-0-0---------------------------------|

G|-----------------------------------------------------------------|
D|-----------------------------------------------------------------|
A|---------------------------------3-3-3-3-3-3-5-5-5-5-5-5-5-5-5-5-|
D|-5-5-5-5-5-5-5-5-5-5-5-5-5-5-5-5---------------------------------|

Verse
Pre-Chorus
Chorus

Solo (do the whole thing x2, then just the first bar)
G|---------------------------------|
D|---------------------------------|
A|---------------------------------|
D|-0--0-3-0-5-0-7-0-10-0-7-0-10-12-| x3

G|-----------|
D|-----------|
A|-x-4-x-3-x-|
D|-----------| x1

Pre-chorus 2
G|-------------------------------------------------------------|
D|-------------------------------------------------------------|
A|-x-4-x-3-x---------------x-4-x-3-x-------------------4~--3~--|
D|-----------0-0-0-0-0-0-0-----------0-0-0-0-0-0-0-0-0---------|

            
            
Suggest correction
Creating personal tab
Creating personal tab
You can edit any tab online and save it as your Personal.

You can edit, replace or remove any tab part or add personal notes – all changes will be seen only by you.

Personal tabs can be accessed anytime from any device, even offline.
Learn more »
Give kudos to tab author, rate the tab!
1 2 3 4 5
comments
print report bad tab
1 comment total.
0 reply
tackzx 31 Jul 27, 2009 04:11 PM

Change the Drop D back to E. The fret numbers are right, the string just isn't tuned down. Maybe you got a weird string?

Almost perfect tab, but after you do the verse three times after the first chorus, the bass does this two times.
D|--------------------------5555
E|350-002233223322350--3333-----, or near exactly like this.
Great job man. 4.5/5

guest
You may want to rate the tab now too:
select rating
Wanna post a correction for this tab? Suggest correction