Oops, an error
Loading. Please wait.

Hold My Hand Bass Tab

version 2
version 2

Whole song

Interactive

1,670 views 3 this week
no commentswrite comment
1 2 3 4 5
not so good
x 2
add to favorites
launch autoscroll
font size
0
reset
guitar tuner
Tab Pro tools
  • play this tab
  • loop segment
  • change instrument
  • show fretboard
  • metronome
×
Best way to learn
"Hold My Hand"
Autoscroll
slow
fast
+/-
esc
set tempo
stop
Difficulty
novice
Verse(Play Twice)
G--------------------9/11--9----------------------9--9-|
D--9--9--------9--9-----------9--9----------9--9-------|
A--------7--7-----------------------7--7-9-------------|
E------------------------------------------------------|

Bridge(Play Twice)
G-------------------|
D---------9---------|
A--9--7-------------|
E-------------------|

Chorus(Play 3x)
G--------------------       G-------|
D--9----------------- Then  D-------|
A-----7--9-----------       A---7---|
E--------------------       E-------|

On the verse, the bassist likes to slide (8/9) before doing the 9/11 slide.  You can do 
8/9 slide pretty much whenever you want.

note: i just edited acdcacdc's tab, so credit goes to him/her.
comments
We did not receive enough feedback on this tab! Please rate:
print report bad tab
1 2 3 4 5
I want to post or [tab]
guest
You may want to rate the tab now too:
select rating
Please do not post tabs as comments. Select "correction" instead!