Oops, an error
Loading. Please wait.

Only Wanna Be With You tab

version 2
version 2

Whole song

  • Hope you enjoyed this tab, this is one of the best versions ever written. Enjoy.

Interactive

17,072 views 36 this week
2 commentsread comments
1 2 3 4 5
x 10
add to favorites
×
Save as Personal and add changes to this tab that will be seen only by you. Learn more ›
×
You can save this tab as Personal to edit and correct it or add notes. All changes will be seen only by you. Learn more »
launch autoscroll
font size
0
reset
how to read this tab
guitar tuner
edit
Autoscroll
slow
fast
+/-
esc
set tempo
stop
Only Wanna Be With You
Hootie and the Blowfish


Capo on 2nd Fret
The numbers are relative to the capo, so 4 is now 2 and so on

Intro:

E|---0---0-0-0---0--0-0-0-0-0-0-|
B|---0---0-0-0---0--0-0-0-0-0-0-|
G|---1---1-1-1---2--2-2-2-2-2-2-| Repeat 3 times
D|---2---2-2-2---4--4-4-4-4-4-4-|
A|---2---2-2-2---0--0-0-0-0-0-0-|
E|---0---0-0-0---x--x-x-x-x-x-x-|

E|----------------------------|
B|---4---4--------------------|
G|---4---4--------------------|
D|---4---4-Let it ring--------|
A|---2---2--------------------|
E|---2---2--------------------|

mute the x with your thumb, I showed the strumming pattern, although I know you know it ;)

Verse (same as first part of intro riff)
E|---0---0-0-0---0--0-0-0-0-0-0-|
B|---0---0-0-0---0--0-0-0-0-0-0-|
G|---1---1-1-1---2--2-2-2-2-2-2-| Repeat until...
D|---2---2-2-2---4--4-4-4-4-4-4-|
A|---2---2-2-2---0--0-0-0-0-0-0-|
E|---0---0-0-0---x--x-x-x-x-x-x-|

Well theres nothing I can do       (let it ring)    I only wanna be with you
E|---0--0-0-0-0----------------------------------------|
B|---2--2-2-2-2----------4---4-------------------------|
G|---2--2-2-2-2----------4---4-------------------------|
D|---2--2-2-2-2----------4---4-------------------------|
A|---0--0-0-0-0----------2---2-------------------------|
E|---x--x-x-x-x----------2---2-------------------------|
After the first verse this is played again after one bar of the main riff between, 
the choruses
The second time through it actually is played twice, with one bar of the main riff 
the first time the 22444 structure is struck once, then twice on the second pass

Then repeat it all again from the verse til the end of the song
Enjoy ! ! !

            
            
Suggest correction
Creating personal tab
Creating personal tab
You can edit any tab online and save it as your Personal.

You can edit, replace or remove any tab part or add personal notes – all changes will be seen only by you.

Personal tabs can be accessed anytime from any device, even offline.
Learn more »
comments
print report bad tab
2 comments total.
+1 reply
rockintilldeath 81 Mar 01, 2014 01:55 PM

thanks for the tab.

i think at the "well there's nothing i can do..." it's actually:

E|-----------------------------------------------------|
B|-----------------------4---4-------------------------|
G|---4--4-4-4-4----------4---4-------------------------|
D|---4--4-4-4-4----------4---4-------------------------|
A|---4--4-4-4-4----------2---2-------------------------|
E|---2--2-2-2-2----------2---2-------------------------|

0 reply
Dkoziel5 10 Aug 31, 2016 05:42 PM

I agree with rockintilldeath.

guest
Wanna post a correction for this tab? Suggest correction