Oops, an error
Loading. Please wait.

Sad Song Tab

8,556 views 33 this week
no commentswrite comment
1 2 3 4 5
please rate
add to favorites
launch autoscroll
font size
0
reset
how to read this tab
guitar tuner
Autoscroll
slow
fast
+/-
esc
set tempo
stop
Help us to improve Ultimate-Guitar.com Take our survey!
×
Author
"Sad Song" by Hooverphonic
(rather unknown belgian Band - check www.hooverphonic.com for info)

from the Album "Sit Down And Listen To Hooverphonic"

tabbed by Cipherdivine


Intro (4x) & Verse "Part1" (play "Part1" twice then "Part2" once):

e-----------0-----------0-------------|
B--------1-----1-----0-----0--1--0----|
G-----------------2-----------------2-|
D-----2-------------------------------|
A--0----------------------------------|
E-------------------------------------|

  Am                 Amsus2    Am


Verse "Part2":

e-----------0-----------------0--------|
B--------1-----1-----------1-----1-----|
G-----2-----------2-----2-----------2--|
D--------------------------------------|
A--------------------------------------|
E--2-----------------1-----------------|

  Am/F#             Am/F


Chorus:
(Am* = Play the Am/Amsus2/Am strumming pattern as shown in the Intro)

1: C, Em, Am,  Am/F#
2: C, Em, Am*
3: C, Em, Am,  Am/F#
4: C, Em, Am*

(Chords:)
0  0   0     0
1  0   1     1
0  0   2     2
x  x   2     0
3  2   0     x
-  -   -     2
C Em  Am   Am/F


Outro:

1. Dm, Fmaj7, Am*   (2x)


(Chords:)
1    0     0
3    1     1
2    2     2
0    3     2
-    -     0
-    -     -
Dm  Fmaj7  Am

2. Dm, Fmaj7, C, Am  (1x)

(Chords:)
1    0    0   0
3    1    1   1
2    2    0   2
0    3    x   x
-    -    3   0
-    -    -   -
Dm  Fmaj7 C  Am


3. Dm, E, Am*   (1x)

(Chords:)
1   0   0
3   0   1
2   1   2
0   x   2
-   2   0
-   -   -
Dm  E   Am

4. Am*, Am*, Am*, Am (last Am = played downstroke)


Hope all this makes sense to you :)
Enjoy.

- Cipherdivine
Suggest correction
What's this?
You can suggest a correction to this tab. Community and Mods will review your correction and vote to approve or reject it.
comments
We did not receive enough feedback on this tab! Please rate:
print report bad tab
1 2 3 4 5
guest
You may want to rate the tab now too:
select rating
Please do not post tabs as comments. Select "correction" instead!