Oops, an error
Loading. Please wait.

Piel Morena tab

98 views 1 this week
no commentswrite comment
1 2 3 4 5
3 more votes to show rating
add to favorites
×
Save as Personal and add changes to this tab that will be seen only by you. Learn more ›
×
You can save this tab as Personal to edit and correct it or add notes. All changes will be seen only by you. Learn more »
launch autoscroll
font size
0
reset
how to read this tab
guitar tuner
edit
Autoscroll
slow
fast
+/-
esc
set tempo
stop
Comentario:
Son dos pistas:
a) La Introducción y melodía
b) La rítmica con los acordes que,por cierto, están en
   clave de Fa menor como en el disco. Podés poner capotraste
   en el primer casillero y guiarte por los acordes que puso
   Federico Daniel Picón,en esta misma página que están excelentes.
   Atentos en el compás 9 hice una variació te olvides
   de poner el disco,escuchar y darle tu estilo, esto es una guía.

Pista 1: Introducción y Canto
Pista 1


     Q.     S  S  S S S S       Q.     S  S  S S S S
E||-------------------8---||---------------------8---|
B||-----------------9---9-||-------------------9---9-|
G||--------------10-------||*--10-----------10-------|
D||-----------10----------||*------------10----------|
A||-----------------------||-------------------------|
E||-----------------------||-------------------------|


  Q.     S  S S S S S    S  S S S S S S  S S S S S
------------------8---|-----------8------------8---|
----------------8---8-|---------8---8--------8---8-|
--9-----------9-------|--9----9-------9----9-------|
-----------10---------|----10-----------10---------|
----------------------|----------------------------|
----------------------|----------------------------|


  Q.     E   S  S S S     E   S S  S S  E   S S  S  S
--------------------8-|--------------8-11----------11-|
--9---------------9---|--10-------10------------10----|
---------------10-----|---------8-------------8-------|
------------10--------|------10------------10---------|
----------------------|-------------------------------|
----------------------|-------------------------------|


   E   E  E   E  E  E     E  E  E  Q     E
---9---9--8---9--8--6--|-----------8--------|
--11--11--9--11--9--8--|--8--8--8--9----11--|
-----------------------|--9--9--9-------12--|
-----------------------|--------------------|
-----------------------|--------------------|
-----------------------|--------------------|


   E   E  E   E   E   E     E   E   E  E  E.  S
-------------------------|----------------8---6-|
---9---------------------|----------------9---8-|
--10--10--9--10----------|----------------------|
-----------------11--10--|--8-------------------|
-------------------------|-----11--10--8--------|
-------------------------|----------------------|


     E  Q.     E.  S     E  Q.     Q
|----9--8------8---6-|---9--8-----------|
|---11--9------9---8-|--11--9-----------|
|*-------------------|------------------|
|*-------------------|------------------|
|--------------------|------------------|
|--------------------|------------------|


  E  E   E   E   E   E     E   Q    E   E.   S
------------------------|--8-------------------|
--8--8---9--11---9--11--|--9--11-------11---10-|
--8--8--10--12--10--12--|-----12-------12---11-|
------------------------|----------------------|
------------------------|----------------------|
------------------------|----------------------|


   E   Q.      E.   S     E   Q.     Q
----------------------|-------------------|
--13--11------11---10-|--13--11-----------|
--13--12------12---11-|--13--12-----------|
----------------------|-------------------|
----------------------|-------------------|
----------------------|-------------------|


  E  E   E   E   E   E     E  E  Q     E   E
------------------------|--8--8-------11---9--|
--8--8---9--11---9--11--|--9--9-------13--11--|
--8--8--10--12--10--12--|---------------------|
------------------------|---------------------|
------------------------|---------------------|
------------------------|---------------------|


  Q     Q     E   E     E   E  E   Q.
--8----------11---9--|--8------8---9------|
--9----10----13--11--|--9--11--9--11------|
-------11------------|-----12-------------|
---------------------|--------------------|
---------------------|--------------------|
---------------------|--------------------|


  E   E  E   E  E   E     E   E  Q    E.  S
-----------------------|--------------8---6--||
--8---9--8---9--8------|--8-----------9---8--||
--9--10--9--10--9---9--|--9--10-------------*||
-------------------10--|-----10-------------*||
-----------------------|---------------------||
-----------------------|---------------------||


  E   E  Q     E.   S     E   Q    E   E.   S
--------------13---12-|--13-----------13---12-|
--8-----------14---13-|--14--13-------14---13-|
--9--10---------------|------13---------------|
-----10---------------|-----------------------|
----------------------|-----------------------|
----------------------|-----------------------|


   E   Q    Q.         E   E   E   E   E   E
--13---------------|--10--10--12--13--12--10--|
--14--13-----------|--12--12--13--15--13--12--|
------13-----------|--------------------------|
-------------------|--------------------------|
-------------------|--------------------------|
-------------------|--------------------------|


   Q.     Q.         E   E  E   E  E   E
--12-------------|-------9--8---9--8------|
--13-------------|--11--11--9--11--9--11--|
-----------------|--12----------------12--|
-----------------|------------------------|
-----------------|------------------------|
-----------------|------------------------|


  E   E   E  E   E   E      E  E   E   E   E   E
--8----------8----------|-------------------------|
--9---9--11--9--11---9--|--11--8---9--11---9--11--|
-----10--12-----12--10--|--12--9--10--12--10--12--|
------------------------|-------------------------|
------------------------|-------------------------|
------------------------|-------------------------|


  Q.     Q.         E   E   E   E   E  E
--8-------------|-------------------------|
--9-------------|--11--11--11--11---9--8--|
----------------|--12--12--12--12--10--9--|
----------------|-------------------------|
----------------|-------------------------|
----------------|-------------------------|


   E   E  E  E   E   E      E  E   E  E   E  E
----------8--8----------|-------------8---------|
---9---9--9--9--11--10--|--11--8--11--9------8--|
--10--10--------12--11--|--12--9--12-----10--9--|
------------------------|----------------10-----|
------------------------|-----------------------|
------------------------|-----------------------|


   H.
----------------||
---9------------||
--10------------||
----------------||
----------------||
----------------||


Pista 2 Rítmica

Este es la rítmica, que insisto si miras los acordes de Federico,
poniendo el capotraste en el primer casillero sale espectacular.
La x significa que la cuerda se  liberarla.


     Fm                    Fm
           >     >               >     >
     E.  S E  E  Q         E.  S E  E  Q
E||--1---x-1--1--1----||---1---x-1--1--1----|
B||--1---x-1--x--1----||---1---x-1--x--1----|
G||--1---x-1--x--1----||*--1---x-1--x--1----|
D||--3---3-3--x--3----||*--3---3-3--x--3----|
A||--3---3-3--x--3----||---3---3-3--x--3----|
E||--1---1-1--x--1----||---1---1-1--x--1----|


  C7                  C7
        >     >             >     >
  E.  S E  E  Q       E.  S E  E  Q
--3---x-3--3--3----|--3---x-3--3--3----|
--1---x-1--x--1----|--1---x-1--x--1----|
--3---x-3--x--3----|--3---x-3--x--3----|
--2---2-2--x--2----|--2---2-2--x--2----|
--3---3-3--x--3----|--3---3-3--x--3----|
--x---x-x--x--x----|--x---x-x--x--x----|


  Fm                  F7
        >     >             >     >
  E.  S E  E  Q       E.  S E  E  Q
--1---x-1--1--1----|--1---x-1--1--1----|
--1---x-1--x--1----|--1---x-1--x--1----|
--1---x-1--x--1----|--2---x-2--x--2----|
--3---3-3--x--3----|--1---1-1--x--1----|
--3---3-3--x--3----|--3---3-3--x--3----|
--1---1-1--x--1----|--1---1-1--x--1----|


  Bbm                 C7
        >     >             >     >
  E.  S E  E  Q       E.  S E  E  Q
--1---x-1--1--1----|--3---x-3--3--3----|
--2---x-2--x--2----|--1---x-1--x--1----|
--3---x-3--x--3----|--3---x-3--x--3----|
--3---3-3--x--3----|--2---2-2--x--2----|
--1---1-1--x--1----|--3---3-3--x--3----|
--1---1-1--x--1----|--x---x-x--x--x----|


  Fm                  Fm
        >     >             >     >
  E.  S E  E  Q       E.  S E  E  Q
--1---x-1--1--1----|--1---x-1--1--1----|
--1---x-1--x--1----|--1---x-1--x--1----|
--1---x-1--x--1----|--1---x-1--x--1----|
--3---3-3--x--3----|--3---3-3--x--3----|
--3---3-3--x--3----|--3---3-3--x--3----|
--1---1-1--x--1----|--1---1-1--x--1----|


    Fm                  Fm
          >     >             >     >
    E.  S E  E  Q       E.  S E  E  Q
|---1---x-1--1--1----|--1---x-1--1--1----|
|---1---x-1--x--1----|--1---x-1--x--1----|
|*--1---x-1--x--1----|--1---x-1--x--1----|
|*--3---3-3--x--3----|--3---3-3--x--3----|
|---3---3-3--x--3----|--3---3-3--x--3----|
|---1---1-1--x--1----|--1---1-1--x--1----|


  Fm   Eb   Db      C7
  >    >    >             >     >
  Q    Q    Q       E.  S E  E  Q
--1----3----1----|--3---x-3--3--3----|
--1----4----2----|--1---x-1--x--1----|
--1----3----1----|--3---x-3--x--3----|
--3----1----3----|--2---2-2--x--2----|
--3----1----4----|--3---3-3--x--3----|
-----------------|--x---x-x--x--x----|


  C7                  C7
        >     >             >     >
  E.  S E  E  Q       E.  S E  E  Q
--3---x-3--3--3----|--3---x-3--3--3----|
--1---x-1--x--1----|--1---x-1--x--1----|
--3---x-3--x--3----|--3---x-3--x--3----|
--2---2-2--x--2----|--2---2-2--x--2----|
--3---3-3--x--3----|--3---3-3--x--3----|
--x---x-x--x--x----|--x---x-x--x--x----|


  C7                  Fm
        >     >             >     >
  E.  S E  E  Q       E.  S E  E  Q
--3---x-3--3--3----|--1---x-1--1--1----|
--1---x-1--x--1----|--1---x-1--x--1----|
--3---x-3--x--3----|--1---x-1--x--1----|
--2---2-2--x--2----|--3---3-3--x--3----|
--3---3-3--x--3----|--3---3-3--x--3----|
--x---x-x--x--x----|--1---1-1--x--1----|


  F7                  Bbm
        >     >             >     >
  E.  S E  E  Q       E.  S E  E  Q
--1---x-1--1--1----|--1---x-1--1--1----|
--1---x-1--x--1----|--2---x-2--x--2----|
--2---x-2--x--2----|--3---x-3--x--3----|
--1---1-1--x--1----|--3---3-3--x--3----|
--3---3-3--x--3----|--1---1-1--x--1----|
--1---1-1--x--1----|--1---1-1--x--1----|


  C7                  Fm
        >     >             >     >
  E.  S E  E  Q       E.  S E  E  Q
--3---x-3--3--3----|--1---x-1--1--1-----||
--1---x-1--x--1----|--1---x-1--x--1-----||
--3---x-3--x--3----|--1---x-1--x--1----*||
--2---2-2--x--2----|--3---3-3--x--3----*||
--3---3-3--x--3----|--3---3-3--x--3-----||
--x---x-x--x--x----|--1---1-1--x--1-----||


  Fm                  Fm
        >     >             >     >
  E.  S E  E  Q       E.  S E  E  Q
--1---x-1--1--1----|--1---x-1--1--1----|
--1---x-1--x--1----|--1---x-1--x--1----|
--1---x-1--x--1----|--1---x-1--x--1----|
--3---3-3--x--3----|--3---3-3--x--3----|
--3---3-3--x--3----|--3---3-3--x--3----|
--1---1-1--x--1----|--1---1-1--x--1----|


  Fm                  G7
        >     >       v     >     >
  E.  S E  E  Q       E.  S E  E  Q
--1---x-1--1--1----|--3---x-3--3--3----|
--1---x-1--x--1----|--3---x-3--x--3----|
--1---x-1--x--1----|--4---x-4--x--4----|
--3---3-3--x--3----|--3---3-3--x--3----|
--3---3-3--x--3----|--5---5-5--x--5----|
--1---1-1--x--1----|--3---3-3--x--3----|


  C7                  Bbm
        >     >             >     >
  E.  S E  E  Q       E.  S E  E  Q
--3---x-3--3--3----|--1---x-1--1--1----|
--1---x-1--x--1----|--2---x-2--x--2----|
--3---x-3--x--3----|--3---x-3--x--3----|
--2---2-2--x--2----|--3---3-3--x--3----|
--3---3-3--x--3----|--1---1-1--x--1----|
--x---x-x--x--x----|--1---1-1--x--1----|


  Fm   Eb/F Db      C7
  v    v    v             >     >
  Q    Q    Q       E.  S E  E  Q
--1----3----1----|--3---x-3--3--3----|
--1----4----2----|--1---x-1--x--1----|
--1----3----1----|--3---x-3--x--3----|
--3----1----3----|--2---2-2--x--2----|
--3----1----4----|--3---3-3--x--3----|
--1----1----1----|--x---x-x--x--x----|


  Fm          F       Bbm
        >     >             >     >
  E.  S E  E  Q       E.  S E  E  Q
--1---x-1--1--1----|--1---x-1--1--1----|
--1---x-1--x--1----|--2---x-2--x--2----|
--1---x-1--x--2----|--3---x-3--x--3----|
--3---3-3--x--3----|--3---3-3--x--3----|
--3---3-3--x--3----|--1---1-1--x--1----|
--1---1-1--x--1----|--1---1-1--x--1----|


  Fm   Eb/F Db      C7
  v    v    v             >     >
  Q    Q    Q       E.  S E  E  Q
--1----3----1----|--3---x-3--3--3----|
--1----4----2----|--1---x-1--x--1----|
--1----3----1----|--3---x-3--x--3----|
--3----1----3----|--2---2-2--x--2----|
--3----1----4----|--3---3-3--x--3----|
--1----1----1----|--x---x-x--x--x----|


  Fm
  H.
--1------------||
--1------------||
--1------------||
--3------------||
--3------------||
--1------------||


Duration Legend
---------------
W - whole
H - half
Q - quarter
E - 8th
S - 16th
T - 32nd
X - 64th
. - note dotted
|-n-|  - n-tuplets


Tablature Legend
----------------
L - tied note
x - dead note
g - grace note
(n) - ghost note
> - accentuded note
NH - natural harmonic
AH - artificial harmonic
TH - tapped harmonic
SH - semi harmonic
PH - pitch harmonic
h - hammer on
p - pull off
b - bend
br - bendRelease
pb - preBend
pbr - preBendRelease
brb - bendReleaseBend
n/ - tremolo bar dip
n - tremolo bar dive
-/n - tremolo bar Release up
/n - tremolo bar inverted dip
/n - tremolo bar return
-n - tremolo bar Release down
S - shift slide
s - legato slide
/ -  slide into from below or out of upwards
 -  slide into from above or out of downwards
~ - vibrato
W - wide vibrato
tr - trill
TP - tremolo picking
T - tapping
S - slap
P - pop
< - fade in
^ - brush up
v - brush down

            
            
Suggest correction
Creating personal tab
Creating personal tab
You can edit any tab online and save it as your Personal.

You can edit, replace or remove any tab part or add personal notes – all changes will be seen only by you.

Personal tabs can be accessed anytime from any device, even offline.
Learn more »
Give kudos to tab author, rate the tab!
1 2 3 4 5
comments
print report bad tab
guest
Wanna post a correction for this tab? Suggest correction