Oops, an error
Loading. Please wait.

En Guardia tab

by Horcas
45 views 1 this week
no commentswrite comment
1 2 3 4 5
3 more votes to show rating
add to favorites
×
Save as Personal and add changes to this tab that will be seen only by you. Learn more ›
×
You can save this tab as Personal to edit and correct it or add notes. All changes will be seen only by you. Learn more »
launch autoscroll
font size
0
reset
how to read this tab
guitar tuner
edit
Autoscroll
slow
fast
+/-
esc
set tempo
stop
Correción de mi propia transcripción, esta si está correcta

Afinación: Mib Lab Reb Solb Sib Mib

Intro: x16
   DO#
|-----------------|
|-----------------|
|--14-12-10-9-10--|
|--0000000000000--|
|-----------------|
|-----------------|

Estrofas y Base de Solo:
   DO#                         LA           FA# MI
|-------------------------------------------------------|
|-------------------------------------------------------|
|--7-------7-----7-----7-----7--------------------------|
|--7-------7-----7-----7-----7-8-------8-----5-3--------|
|--5-5-5-5-5-5-5-5-5-5-5-5-5-5-8-------8-----5-3--------|
|------------------------------6-6-6-6-6-6-6-3-1-1-1-1--|
PM   .....   ...   ...   ...     .....   ...     .....


DO#                    LA
   Lo que parece ser real
         FA#   MI     DO#
No se asemeja a la ficción
                    LA  FA# MI
Debo mostrarte el camino


Hay un intruso en tu interior
El que devora tu ambición
Debes estar siempre en guardia

Intro x 8

No queda nada por vender
Ya te rentaron tu ilusión
Siempre hay carga en tu espalda

La lucha aún no termino
¿Qué hay que perder para ganar?
No hace falta que te desangres

  SI        FA#   DO#   SI    LA
|--------------------------------|
|--------------------------------|
|-5---------------7-----5-----3--|
|-5---------5-----7-----5-----3--|
|-3---------5-----5-----3-----1--|
|-----------3--------------------|
    Hoy te asusta todo lo que ves

Solo
Base x4
Intro x8

Tu identidad no es real
No hay compasión, no hay confusión
Debes encontrar tu camino

Hay que tirar esa pared
El que no enfrentas por temor
No hace falta que te desangres

SI         FA#    DO#   SI   LA
  Si no lo haces ¿quién lo hará?

Intro x16
En guardia estas

Intro lento x8


                 V8
Hermética  Horcas  Logos  Rata Blanca

Freyre, Cba.
Suggest correction
Creating personal tab
Creating personal tab
You can edit any tab online and save it as your Personal.

You can edit, replace or remove any tab part or add personal notes – all changes will be seen only by you.

Personal tabs can be accessed anytime from any device, even offline.
Learn more »
Give kudos to tab author, rate the tab!
1 2 3 4 5
comments
print report bad tab
guest
Wanna post a correction for this tab? Suggest correction