Oops, an error
Loading. Please wait.

Verimalja Tab

150 views 1 this week
no commentswrite comment
1 2 3 4 5
please rate
add to favorites
launch autoscroll
font size
0
reset
how to read this tab
guitar tuner
Tab Pro tools
  • play this tab
  • loop segment
  • change instrument
  • show fretboard
  • metronome
×
Best way to learn
"Verimalja"
Autoscroll
slow
fast
+/-
esc
set tempo
stop
Contributor
Difficulty
Tuning
novice
D G C F A D
-----------------------------------------------------------------------------
                             Verimalja - Horna
-----------------------------------------------------------------------------


    Band:  Horna
    Album: Sotahuuto
    Song:  Verimalja
    Copyright (c) Deviant Records
    Version 1.0 - 02/01/2013
    Transcribed By: ulfskeptr
    Email: malignitas-odium@hotmail.com

    http://horna666.com/



.  - palm mute           ,  - slight palm mute    
\  - slide down to       /  - slide up to
~  - vibrato             b  - bend
h  - hammer on           p  - pull off                  
[] - second time         *  - see comment
t  - tap                 ph - pinched harmonic
x  - staccato            () - ghost note, sustained note
"  - tremolo note        <> - trill

Suffixes for bend
f  - full bend    h - half bend
q  - quarter bend t - tap bend
^  - hold bend    r - release bend
~  - vibrato bend


Tuning: D G C F A d

Riff 1
e|--------------------------------------------------------------------------|
B|--------------------------------------------------------------------------|
G|----------------------------------------------------------------3---------|
D|-------------------------------5---------------------------5-5--3---------|
A|-\2-2--2-2-2-2h3p0--2-2--2-2-2-5--2-2--2-2-2-2h3p0--2-2--2-5-5--1---------|
E|-\0-0--0-0-0--------0-0--0-0-0-3--0-0--0-0-0--------0-0--0-3-3------------|

Riff 2 (listen to the rhythm)                           Fig. 1
e|-------------------------------------------------|-------------------------
B|-------------------------------------------------|-------------------------
G|-------------------------------------------------|--4----------------------
D|-7-7--7-7--7--7--5-5--5-5--5--5--4-4--4-4--4--4--|--4-3-3--3-3--3--3-------
A|-7-7--7-7--7--7--5-5--5-5--5--5--4-4--4-4--4--4--|--2-3-3--3-3--3--3-------
E|-5-5--5-5--5--5--3-3--3-3--3--3--2-2--2-2--2--2--|----1-1--1-1--1--1-------

Fig. 2
-----------------|
-----------------|
--4------4-------|
--4-3-3--4-3-3---|
--2-3-3--2-3-3---|
----1-1----1-1---|

Riff 3
e|----------------------------------|
B|----------------------------------|
G|----------------------------------|
D|--2--2--2-7--7/9----2--2--5-5--3--|
A|--2--2--2-5--5/7----2--2--3-3--1--|
E|--0--0--0-----------0--0----------|

Riff 4 (something like this)
e|--------------------|
B|--------------------|
G|--------------------|
D|--.-.-.-.----.-.-.--|
A|--2-2-2-2-3--2-2-2--|
E|--0-0-0-0-1--0-0-0--|

Structure:

Riff 1 x 4
Riff 2 x 2
Riff 1 x 4
Riff 2 x 2
Riff 3 x 4
Riff 4 x 8
Riff 1 x 4
Riff 2 x 2
Riff 1 x 4
Riff 2 x 2
Riff 3 x 4
Riff 4 x 8
comments
We did not receive enough feedback on this tab! Please rate:
print report bad tab
1 2 3 4 5
I want to post or [tab]
guest
You may want to rate the tab now too:
select rating
Please do not post tabs as comments. Select "correction" instead!