Oops, an error
Loading. Please wait.

Dotted With Hearts tab

version 1
version 1

Whole song

  • This is the complete version.
31 views 1 this week
no commentswrite comment
1 2 3 4 5
3 more votes to show rating
add to favorites
×
Save as Personal and add changes to this tab that will be seen only by you. Learn more ›
×
You can save this tab as Personal to edit and correct it or add notes. All changes will be seen only by you. Learn more »
launch autoscroll
font size
0
reset
how to read this tab
guitar tuner
edit
Autoscroll
slow
fast
+/-
esc
set tempo
stop
Author
Difficulty
About this tab version
This is the complete version. Was this info helpful? Yes No
[Intro ]*Clean*
e|------------------------------------------------------12-12-11-11-10-10-11-|
B|------------------------------------------------------12-12-11-11-10-10-11-|
G|-------------------------------------9-9-8-8-7-7-8-8-----------------------|
D|--------------------5-5-4-4-3-3-4-4----------------------------------------|
A|---2-2-1-1-0-0-1-1---------------------------------------------------------|
E|---------------------------------------------------------------------------|

[Verse ]*Clean*
e|----3-------------3-------------3-------------3-----------------5-|
B|----3-------------3-------------3-------------3-----------------5-|
G|-5--3--5-5-5-5-5--3--5-5-5-5-5--3--5-5-5-5-5--3--5-5-5-5-0-0----5-|
D|-5-----5-5-5-5-5-----5-5-5-5-5-----5-5-5-5-5-----5-5-5-5-0-0-7----|
A|-3-----3-0-3-0-3-----3-0-3-0-3-----3-0-3-0-3-----3-0-3-0-0-0-7----|
E|---------------------------------------------------------0-0-5----|
         ***********   ***********   ***********   *****************

e|------------5-------------5-------------5------------|
B|------------5-------------5-------------5------------|
G|------------5-------------5-------------5------------|
D|-7-7-7-7-7-----7-7-7-7-7-----7-7-7-7-7-----7-7-7-7-7-|
A|-7-7-7-7-7-----7-7-7-7-7-----7-7-7-7-7-----7-7-7-7-7-|
E|-5-0-5-0-5-----5-0-5-0-5-----5-0-5-0-5-----5-0-5-0-5-|
   ***********   ***********   **********    **********

e|---------------------------------------------------------------------|
B|---------------------------------------------------------------------|
G|---------------------------------------------------------------------|
D|---------------------------------------------------------------------|
A|---------------------------------------------------------------------|
E|--5-5-4-4-2-2-0-0--5-5-4-4-2-2-0-0--5-5-4-4-2-2-0-0--5-5-4-4-2-2-0-0-|

e|------------------------------------------|
B|------------------------------------------|
G|------------------------------------------|
D|--4-4-4-4-4-4-4-4-4-4-4-4-4-4-4-4-4-4-4-4-|
A|--4-4-4-4-4-4-4-4-4-4-4-4-4-4-4-4-4-4-4-4-|
E|--2-2-2-2-2-2-2-2-2-2-2-2-2-2-2-2-2-2-2-2-|
    ****************************************

e|----3-------------3-------------3-------------3-----------------5-|
B|----3-------------3-------------3-------------3-----------------5-|
G|-5--3--5-5-5-5-5--3--5-5-5-5-5--3--5-5-5-5-5--3--5-5-5-5-0-0----5-|
D|-5-----5-5-5-5-5-----5-5-5-5-5-----5-5-5-5-5-----5-5-5-5-0-0-7----|
A|-3-----3-0-3-0-3-----3-0-3-0-3-----3-0-3-0-3-----3-0-3-0-0-0-7----|
E|---------------------------------------------------------0-0-5----|
         **********    **********    **********    ***************

e|------------5-------------5-------------5------------|
B|------------5-------------5-------------5------------|
G|------------5-------------5-------------5------------|
D|-7-7-7-7-7-----7-7-7-7-7-----7-7-7-7-7-----7-7-7-7-7-|
A|-7-7-7-7-7-----7-7-7-7-7-----7-7-7-7-7-----7-7-7-7-7-|
E|-5-0-5-0-5-----5-0-5-0-5-----5-0-5-0-5-----5-0-5-0-5-|
   **********    **********    **********    **********

e|---------------------------------------------------------------------|
B|---------------------------------------------------------------------|
G|---------------------------------------------------------------------|
D|---------------------------------------------------------------------|
A|---------------------------------------------------------------------|
E|--5-5-4-4-2-2-0-0--5-5-4-4-2-2-0-0--5-5-4-4-2-2-0-0--5-5-4-4-2-2-0-0-|

e|------------------------------------------|
B|------------------------------------------|
G|------------------------------------------|
D|--4-4-4-4-4-4-4-4-4-4-4-4-4-4-4-4-4-4-4-4-|
A|--4-4-4-4-4-4-4-4-4-4-4-4-4-4-4-4-4-4-4-4-|
E|--2-2-2-2-2-2-2-2-2-2-2-2-2-2-2-2-2-2-2-2-|
    ***************************************

[Chorus ] *Distortion on*
e|-------------------------------------------------------------------------|
B|-------------------------------------------------------------------------|
G|---5---5--5---5--5---2---2--2---2--2-------------------------------------|
D|---5---5--5---5--5---2---2--2---2--2---3---3--3---3--3---5---5--5---5--5-|
A|---3---3--3---3--3---0---0--0---0--0---3---3--3---3--3---5---5--5---5--5-|
E|---------------------------------------1---1--1---1--1---3---3--3---3--3-|

e|-------------------------------------------------------------------------|
B|-------------------------------------------------------------------------|
G|---5---5--5---5--5---2---2--2---2--2-------------------------------------|
D|---5---5--5---5--5---2---2--2---2--2---3---3--3---3--3---5---5--5---5--5-|
A|---3---3--3---3--3---0---0--0---0--0---3---3--3---3--3---5---5--5---5--5-|
E|---------------------------------------1---1--1---1--1---3---3--3---3--3-|

e|-------------------------------------------------------------------------------3-------------3------------|
B|-------------------------------------------------------------------------------3-------------3------------|
G|---5---5--5---5--5---2---2--2---2--2----------------------------------------5--3--5-5-5-5-5--3--5-5-5-5-5-|
D|---5---5--5---5--5---2---2--2---2--2---3---3--3---3--3---5---5--5---5--5----5-----5-5-5-5-5-----5-5-5-5-5-|
A|---3---3--3---3--3---0---0--0---0--0---3---3--3---3--3---5---5--5---5--5----3-----3-0-3-0-3-----3-0-3-0-3-|
E|---------------------------------------1---1--1---1--1---3---3--3---3--3----------------------------------|

[Verse ]*Clean*
e|----3-------------3-------------3-------------3-----------------5-|
B|----3-------------3-------------3-------------3-----------------5-|
G|-5--3--5-5-5-5-5--3--5-5-5-5-5--3--5-5-5-5-5--3--5-5-5-5-0-0----5-|
D|-5-----5-5-5-5-5-----5-5-5-5-5-----5-5-5-5-5-----5-5-5-5-0-0-7----|
A|-3-----3-0-3-0-3-----3-0-3-0-3-----3-0-3-0-3-----3-0-3-0-0-0-7----|
E|---------------------------------------------------------0-0-5----|
         **********    **********    **********    **************

e|------------5-------------5-------------5------------|
B|------------5-------------5-------------5------------|
G|------------5-------------5-------------5------------|
D|-7-7-7-7-7-----7-7-7-7-7-----7-7-7-7-7-----7-7-7-7-7-|
A|-7-7-7-7-7-----7-7-7-7-7-----7-7-7-7-7-----7-7-7-7-7-|
E|-5-0-5-0-5-----5-0-5-0-5-----5-0-5-0-5-----5-0-5-0-5-|
   **********    **********    **********    *********

e|---------------------------------------------------------------------|
B|---------------------------------------------------------------------|
G|---------------------------------------------------------------------|
D|---------------------------------------------------------------------|
A|---------------------------------------------------------------------|
E|--5-5-4-4-2-2-0-0--5-5-4-4-2-2-0-0--5-5-4-4-2-2-0-0--5-5-4-4-2-2-0-0-|

e|------------------------------------------|
B|------------------------------------------|
G|------------------------------------------|
D|--4-4-4-4-4-4-4-4-4-4-4-4-4-4-4-4-4-4-4-4-|
A|--4-4-4-4-4-4-4-4-4-4-4-4-4-4-4-4-4-4-4-4-|
E|--2-2-2-2-2-2-2-2-2-2-2-2-2-2-2-2-2-2-2-2-|
    ***************************************

e|----3-------------3-------------3-------------3-----------------5-|
B|----3-------------3-------------3-------------3-----------------5-|
G|-5--3--5-5-5-5-5--3--5-5-5-5-5--3--5-5-5-5-5--3--5-5-5-5-0-0----5-|
D|-5-----5-5-5-5-5-----5-5-5-5-5-----5-5-5-5-5-----5-5-5-5-0-0-7----|
A|-3-----3-0-3-0-3-----3-0-3-0-3-----3-0-3-0-3-----3-0-3-0-0-0-7----|
E|---------------------------------------------------------0-0-5----|
         **********    **********    **********    *************

e|------------5-------------5-------------5------------|
B|------------5-------------5-------------5------------|
G|------------5-------------5-------------5------------|
D|-7-7-7-7-7-----7-7-7-7-7-----7-7-7-7-7-----7-7-7-7-7-|
A|-7-7-7-7-7-----7-7-7-7-7-----7-7-7-7-7-----7-7-7-7-7-|
E|-5-0-5-0-5-----5-0-5-0-5-----5-0-5-0-5-----5-0-5-0-5-|
   **********    **********    **********    *********

e|---------------------------------------------------------------------|
B|---------------------------------------------------------------------|
G|---------------------------------------------------------------------|
D|---------------------------------------------------------------------|
A|---------------------------------------------------------------------|
E|--5-5-4-4-2-2-0-0--5-5-4-4-2-2-0-0--5-5-4-4-2-2-0-0--5-5-4-4-2-2-0-0-|

e|------------------------------------------|
B|------------------------------------------|
G|------------------------------------------|
D|--4-4-4-4-4-4-4-4-4-4-4-4-4-4-4-4-4-4-4-4-|
A|--4-4-4-4-4-4-4-4-4-4-4-4-4-4-4-4-4-4-4-4-|
E|--2-2-2-2-2-2-2-2-2-2-2-2-2-2-2-2-2-2-2-2-|
    ***************************************

[Chorus] *Distortion on*
e|-------------------------------------------------------------------------|
B|-------------------------------------------------------------------------|
G|---5---5--5---5--5---2---2--2---2--2-------------------------------------|
D|---5---5--5---5--5---2---2--2---2--2---3---3--3---3--3---5---5--5---5--5-|
A|---3---3--3---3--3---0---0--0---0--0---3---3--3---3--3---5---5--5---5--5-|
E|---------------------------------------1---1--1---1--1---3---3--3---3--3-|

e|-------------------------------------------------------------------------|
B|-------------------------------------------------------------------------|
G|---5---5--5---5--5---2---2--2---2--2-------------------------------------|
D|---5---5--5---5--5---2---2--2---2--2---3---3--3---3--3---5---5--5---5--5-|
A|---3---3--3---3--3---0---0--0---0--0---3---3--3---3--3---5---5--5---5--5-|
E|---------------------------------------1---1--1---1--1---3---3--3---3--3-|

e|-------------------------------------------------------------------------------3-------------3------------|
B|-------------------------------------------------------------------------------3-------------3------------|
G|---5---5--5---5--5---2---2--2---2--2----------------------------------------5--3--5-5-5-5-5--3--5-5-5-5-5-|
D|---5---5--5---5--5---2---2--2---2--2---3---3--3---3--3---5---5--5---5--5----5-----5-5-5-5-5-----5-5-5-5-5-|
A|---3---3--3---3--3---0---0--0---0--0---3---3--3---3--3---5---5--5---5--5----3-----3-0-3-0-3-----3-0-3-0-3-|
E|---------------------------------------1---1--1---1--1---3---3--3---3--3----------------------------------|

[Bridge] *Clean*
e|------------------------------------------------------------------------------|
B|------------------------------------------------------------------------------|
G|-5--5-5-5-5-5-5--5--5-5-5-5-5-5--5--5-5-5-5-5-5--5--5-5-5-5-5-5-5-5-5-5-5-5-5-|
D|-5--5-5-5-5-5-5--5--5-5-5-5-5-5--5--5-5-5-5-5-5--5--5-5-5-5-5-5-5-5-5-5-5-5-5-|
A|-3--3-3-3-0-0-3--3--3-3-3-0-0-3--3--3-3-3-0-0-3--3--3-3-3-0-0-3-3-0-0-3-3-0-0-|
E|------------------------------------------------------------------------------|
   *****************************************************************************

e|------------------------------------------------------------------------------|
B|------------------------------------------------------------------------------|
G|------------------------------------------------------------------------------|
D|-7--7-7-7-7-7-7--7--7-7-7-7-7-7--7--7-7-7-7-7-7--7--7-7-7-7-7-7-7-7-7-7-7-7-7-|
A|-7--7-7-7-7-7-7--7--7-7-7-7-7-7--7--7-7-7-7-7-7--7--7-7-7-7-7-7-7-7-7-7-7-7-7-|
E|-5--5-5-5-0-0-5--5--5-5-5-0-0-5--5--5-5-5-0-0-5--5--5-5-5-0-0-5-5-0-0-5-5-0-0-|
   ****************************************************************************

e|------------------------------------------------------------------------------|
B|------------------------------------------------------------------------------|
G|------------------------------------------------------------------------------|
D|-3--3-3-3-3-3-3--3--3-3-3-3-3-3--3--3-3-3-3-3-3--3--3-3-3-3-3-3-3-3-3-3-3-3-3-|
A|-3--3-3-3-3-3-3--3--3-3-3-3-3-3--3--3-3-3-3-3-3--3--3-3-3-3-3-3-3-3-3-3-3-3-3-|
E|-1--1-1-1-0-0-1--1--1-1-1-0-0-1--1--1-1-1-0-0-1--1--1-1-1-0-0-1-1-0-0-1-1-0-0-|
   ****************************************************************************

e|-0--0-0--0-0--0-0--0-0-0-0-0-0--0-0-0-0-|
B|-0--0-0--0-0--0-0--0-0-0-0-0-0--0-0-0-0-|
G|-1--1-1--1-1--1-1--1-1-1-1-1-1--1-1-1-1-|
D|-2--2-2--2-2--2-2--2-2-2-2-2-2--2-2-2-2-|
A|-2--2-2--2-2--2-2--2-2-2-2-2-2--2-2-2-2-|
E|-0--0-0--0-0--0-0--0-0-0-0-0-0--0-0-0-0-|

[Chorus ] *Distortion on*
e|-------------------------------------------------------------------------|
B|-------------------------------------------------------------------------|
G|---5---5--5---5--5---2---2--2---2--2-------------------------------------|
D|---5---5--5---5--5---2---2--2---2--2---3---3--3---3--3---5---5--5---5--5-|
A|---3---3--3---3--3---0---0--0---0--0---3---3--3---3--3---5---5--5---5--5-|
E|---------------------------------------1---1--1---1--1---3---3--3---3--3-|

e|-------------------------------------------------------------------------|
B|-------------------------------------------------------------------------|
G|---5---5--5---5--5---2---2--2---2--2-------------------------------------|
D|---5---5--5---5--5---2---2--2---2--2---3---3--3---3--3---5---5--5---5--5-|
A|---3---3--3---3--3---0---0--0---0--0---3---3--3---3--3---5---5--5---5--5-|
E|---------------------------------------1---1--1---1--1---3---3--3---3--3-|

e|-------------------------------------------------------------------------|
B|-------------------------------------------------------------------------|
G|---5---5--5---5--5---2---2--2---2--2-------------------------------------|
D|---5---5--5---5--5---2---2--2---2--2---3---3--3---3--3---5---5--5---5--5-|
A|---3---3--3---3--3---0---0--0---0--0---3---3--3---3--3---5---5--5---5--5-|
E|---------------------------------------1---1--1---1--1---3---3--3---3--3-|

e|-------------------------------------------------------------------------|
B|-------------------------------------------------------------------------|
G|---5---5--5---5--5---2---2--2---2--2-------------------------------------|
D|---5---5--5---5--5---2---2--2---2--2---3---3--3---3--3---5---5--5---5--5-|
A|---3---3--3---3--3---0---0--0---0--0---3---3--3---3--3---5---5--5---5--5-|
E|---------------------------------------1---1--1---1--1---3---3--3---3--3-|

e|-------------------------------------------------------------------------|
B|-------------------------------------------------------------------------|
G|---5---5--5---5--5---2---2--2---2--2-------------------------------------|
D|---5---5--5---5--5---2---2--2---2--2---3---3--3---3--3---5---5--5---5--5-|
A|---3---3--3---3--3---0---0--0---0--0---3---3--3---3--3---5---5--5---5--5-|
E|---------------------------------------1---1--1---1--1---3---3--3---3--3-|

e|-------------------------------------------------------------------------|
B|-------------------------------------------------------------------------|
G|---5---5--5---5--5---2---2--2---2--2-------------------------------------|
D|---5---5--5---5--5---2---2--2---2--2---3---3--3---3--3---5---5--5---5--5-|
A|---3---3--3---3--3---0---0--0---0--0---3---3--3---3--3---5---5--5---5--5-|
E|---------------------------------------1---1--1---1--1---3---3--3---3--3-|

e|-----------------------------------|
B|-----------------------------------|
G|-5---5--5---5--5---2---2--2---2--2-|
D|-5---5--5---5--5---2---2--2---2--2-|
A|-3---3--3---3--3---0---0--0---0--0-|
E|-----------------------------------|

[Outro ]*Distortion on*

e|------------------|
B|------------------|
G|------------------|
D|-3----------5-----|
A|-3----------5-----|
E|-1----------3-----|

***************************

| *  Palm mute

***************************
Suggest correction
Creating personal tab
Creating personal tab
You can edit any tab online and save it as your Personal.

You can edit, replace or remove any tab part or add personal notes – all changes will be seen only by you.

Personal tabs can be accessed anytime from any device, even offline.
Learn more »
Give kudos to tab author, rate the tab!
1 2 3 4 5
comments
print report bad tab
guest
You may want to rate the tab now too:
select rating
Wanna post a correction for this tab? Suggest correction