Oops, an error
Loading. Please wait.

Heading For The Disco tab

7 views 1 this week
no commentswrite comment
1 2 3 4 5
3 more votes to show rating
add to favorites
×
Save as Personal and add changes to this tab that will be seen only by you. Learn more ›
×
You can save this tab as Personal to edit and correct it or add notes. All changes will be seen only by you. Learn more »
launch autoscroll
font size
0
reset
how to read this tab
guitar tuner
edit
Autoscroll
slow
fast
+/-
esc
set tempo
stop
[Intro]
e|--5------------5--5-5--5-5--7--7-7--7-7-|--5------------5--5-5--5-5--7--7-7--7-7-|
B|--5------------7--7-7--7-7--9--9-9--9-9-|--5------------7--7-7--7-7--9--9-9--9-9-|
G|--6------------7--7-7--7-7--9--9-9--9-9-|--6------------7--7-7--7-7--9--9-9--9-9-|
D|--7------------7--7-7--7-7--9--9-9--9-9-|--7------------7--7-7--7-7--9--9-9--9-9-|
A|--7------------5--5-5--5-5--7--7-7--7-7-|--7------------5--5-5--5-5--7--7-7--7-7-|
E|--5-------------------------------------|--5-------------------------------------|

e|--5------------5--5-5--5-5--7--7-7--7-7-|--5------------5--5-5--5-5--7--7-7--7-7-|
B|--5------------7--7-7--7-7--9--9-9--9-9-|--5------------7--7-7--7-7--9--9-9--9-9-|
G|--6------------7--7-7--7-7--9--9-9--9-9-|--6------------7--7-7--7-7--9--9-9--9-9-|
D|--7------------7--7-7--7-7--9--9-9--9-9-|--7------------7--7-7--7-7--9--9-9--9-9-|
A|--7------------5--5-5--5-5--7--7-7--7-7-|--7------------5--5-5--5-5--7--7-7--7-7-|
E|--5-------------------------------------|--5-------------------------------------|

[Verse]
e|----------------------------------------|----------------------------------------|
B|----------------------------------------|----------------------------------------|
G|----------------------------------------|----------------------------------------|
D|----------------------------------------|----------------------------------------|
A|----------------------------------------|----------------------------------------|
E|----------------------------------------|----------------------------------------|

e|----------------------------------------|----------------------------------------|
B|----------------------------------------|----------------------------------------|
G|----------------------------------------|----------------------------------------|
D|----------------------------------------|----------------------------------------|
A|----------------------------------------|----------------------------------------|
E|----------------------------------------|----------------------------------------|

[Pre-Chorus]
e|---------------|
B|---------------|
G|---------------|
D|-5------3------|
A|-5------3------|
E|-3------1------|

[Chorus]
e|------------------------------------5--3---0-------------------------------------------------------|
B|---------------------------------------------------------------------------------------------------|
G|-2--2-2--2-2-2-2--2-2--2-2--5--5-5---------------------------------------7--7-7--7-7-7-7--7-7--7-7-|
D|-2--2-2--2-2-2-2--2-2--2-2--5--5-5------------3--3-3--3-3-3-3--3-3--3-3--7--7-7--7-7-7-7--7-7--7-7-|
A|-0--0-0--0-0-0-0--0-0--0-0--3--3-3------------3--3-3--3-3-3-3--3-3--3-3--5--5-5--5-5-5-5--5-5--5-5-|
E|----------------------------------------------1--1-1--1-1-1-1--1-1--1-1----------------------------|

e|------------------------------------5--3---0-------------------------------------------------------|
B|---------------------------------------------------------------------------------------------------|
G|-2--2-2--2-2-2-2--2-2--2-2--5--5-5---------------------------------------7--7-7--7-7-7-7--7-7--7-7-|
D|-2--2-2--2-2-2-2--2-2--2-2--5--5-5------------3--3-3--3-3-3-3--3-3--3-3--7--7-7--7-7-7-7--7-7--7-7-|
A|-0--0-0--0-0-0-0--0-0--0-0--3--3-3------------3--3-3--3-3-3-3--3-3--3-3--5--5-5--5-5-5-5--5-5--5-5-|
E|----------------------------------------------1--1-1--1-1-1-1--1-1--1-1----------------------------|

[Instrumental]
e|--5------------5--5-5--5-5--7--7-7--7-7-|--5------------5--5-5--5-5--7--7-7--7-7-|
B|--5------------7--7-7--7-7--9--9-9--9-9-|--5------------7--7-7--7-7--9--9-9--9-9-|
G|--6------------7--7-7--7-7--9--9-9--9-9-|--6------------7--7-7--7-7--9--9-9--9-9-|
D|--7------------7--7-7--7-7--9--9-9--9-9-|--7------------7--7-7--7-7--9--9-9--9-9-|
A|--7------------5--5-5--5-5--7--7-7--7-7-|--7------------5--5-5--5-5--7--7-7--7-7-|
E|--5-------------------------------------|--5-------------------------------------|

[Verse]
e|----------------------------------------|----------------------------------------|
B|----------------------------------------|----------------------------------------|
G|----------------------------------------|----------------------------------------|
D|----------------------------------------|----------------------------------------|
A|----------------------------------------|----------------------------------------|
E|----------------------------------------|----------------------------------------|

e|----------------------------------------|----------------------------------------|
B|----------------------------------------|----------------------------------------|
G|----------------------------------------|----------------------------------------|
D|----------------------------------------|----------------------------------------|
A|----------------------------------------|----------------------------------------|
E|----------------------------------------|----------------------------------------|

[Pre-Chorus]
e|---------------|
B|---------------|
G|---------------|
D|-5------3------|
A|-5------3------|
E|-3------1------|

[Chorus]
e|------------------------------------5--3---0-------------------------------------------------------|
B|---------------------------------------------------------------------------------------------------|
G|-2--2-2--2-2-2-2--2-2--2-2--5--5-5---------------------------------------7--7-7--7-7-7-7--7-7--7-7-|
D|-2--2-2--2-2-2-2--2-2--2-2--5--5-5------------3--3-3--3-3-3-3--3-3--3-3--7--7-7--7-7-7-7--7-7--7-7-|
A|-0--0-0--0-0-0-0--0-0--0-0--3--3-3------------3--3-3--3-3-3-3--3-3--3-3--5--5-5--5-5-5-5--5-5--5-5-|
E|----------------------------------------------1--1-1--1-1-1-1--1-1--1-1----------------------------|

e|------------------------------------5--3---0-------------------------------------------------------|
B|---------------------------------------------------------------------------------------------------|
G|-2--2-2--2-2-2-2--2-2--2-2--5--5-5---------------------------------------7--7-7--7-7-7-7--7-7--7-7-|
D|-2--2-2--2-2-2-2--2-2--2-2--5--5-5------------3--3-3--3-3-3-3--3-3--3-3--7--7-7--7-7-7-7--7-7--7-7-|
A|-0--0-0--0-0-0-0--0-0--0-0--3--3-3------------3--3-3--3-3-3-3--3-3--3-3--5--5-5--5-5-5-5--5-5--5-5-|
E|----------------------------------------------1--1-1--1-1-1-1--1-1--1-1----------------------------|

[Pre-Solo]
e|-8-7-5---8-7-5---8-7-5---10-8------|
B|-------8-------8-------8------10-8-|
G|-----------------------------------|
D|-----------------------------------|
A|-----------------------------------|
E|-----------------------------------|

[Solo]
e|-0--0--0--0--0--0--0--0--0--0--0--0--0--0--0--0--0--0--0--0--0--0--0--0-|
B|-10-10-10-10-10-10-8--8--8--8--8--8--6--6--6--6--6--6--5--5--5--5--5--5-|
G|-9--9--9--9--9--9--7--7--7--7--7--7--5--5--5--5--5--5--4--4--4--4--4--4-|
D|-0--0--0--0--0--0--0--0--0--0--0--0--0--0--0--0--0--0--0--0--0--0--0--0-|
A|------------------------------------------------------------------------|
E|------------------------------------------------------------------------|

e|---------------------------------------------------------------------------------|
B|-5----6----8---8----6----5---5----3----1---1---0---1----3----1----0---0---1---0--|
G|---------------------------------------------------------------------------------|
D|---------------------------------------------------------------------------------|
A|---------------------------------------------------------------------------------|
E|---------------------------------------------------------------------------------|

e|-0--0--0--0--0--0--0--0--0--0--0--0--0--0--0--0--0--0--0--0--0--0--0--0--0--0--0--0--0--0--0--0-|
B|-1--1--1--1--3--3--3--3--1--1--1--1--0--0--0--0--1--1--1--1--3--3--3--3--5--5--5--5--5--5--5--5-|
G|-0--0--0--0--0--0--0--0--0--0--0--0--0--0--0--0--0--0--0--0--0--0--0--0--0--0--0--0--0--0--0--0-|
D|------------------------------------------------------------------------------------------------|
A|------------------------------------------------------------------------------------------------|
E|------------------------------------------------------------------------------------------------|

e|-0--0--0--0--0--0--0--0--5--5--5--0--0--0--0--0--0--5--5--5--0--0--0--0--0--0-|
B|-6--6--6--6--6--6--6--6--6--6--6--6--6--6--6--6--6--6--6--6--6--6--6--6--6--6-|
G|-0--0--0--0--0--0--0--0--0--0--0--0--0--0--5--5--5--0--0--0--0--0--0--5--5--5-|
D|------------------------------------------------------------------------------|
A|------------------------------------------------------------------------------|
E|------------------------------------------------------------------------------|

e|-5-5-0-0-5-5-0-0-5-5-------------------------------------|
B|-6-6-6-6-6-6-6-6-6-6-13-13-13-13-13-13-15-15-15-15-15-15-|
G|-0-0-0-0-0-0-0-0-0-0-12-12-12-12-12-12-14-14-14-14-14-14-|
D|---------------------------------------------------------|
A|---------------------------------------------------------|
E|---------------------------------------------------------|

e|--------------------|
B|--13-13-12-12-10-10-|
G|--12-12-11-11-9--9--|
D|--------------------|
A|--------------------|
E|--------------------|

[Chorus]
e|------------------------------------5--3---0-------------------------------------------------------|
B|---------------------------------------------------------------------------------------------------|
G|-2--2-2--2-2-2-2--2-2--2-2--5--5-5---------------------------------------7--7-7--7-7-7-7--7-7--7-7-|
D|-2--2-2--2-2-2-2--2-2--2-2--5--5-5------------3--3-3--3-3-3-3--3-3--3-3--7--7-7--7-7-7-7--7-7--7-7-|
A|-0--0-0--0-0-0-0--0-0--0-0--3--3-3------------3--3-3--3-3-3-3--3-3--3-3--5--5-5--5-5-5-5--5-5--5-5-|
E|----------------------------------------------1--1-1--1-1-1-1--1-1--1-1----------------------------|

e|------------------------------------5--3---0-------------------------------------------------------|
B|---------------------------------------------------------------------------------------------------|
G|-2--2-2--2-2-2-2--2-2--2-2--5--5-5---------------------------------------7--7-7--7-7-7-7--7-7--7-7-|
D|-2--2-2--2-2-2-2--2-2--2-2--5--5-5------------3--3-3--3-3-3-3--3-3--3-3--7--7-7--7-7-7-7--7-7--7-7-|
A|-0--0-0--0-0-0-0--0-0--0-0--3--3-3------------3--3-3--3-3-3-3--3-3--3-3--5--5-5--5-5-5-5--5-5--5-5-|
E|----------------------------------------------1--1-1--1-1-1-1--1-1--1-1----------------------------|

[Outro]
e|------------------------------------5--3---0-------------------------------------------------------|
B|---------------------------------------------------------------------------------------------------|
G|-2--2-2--2-2-2-2--2-2--2-2--5--5-5---------------------------------------7--7-7--7-7-7-7--7-7--7-7-|
D|-2--2-2--2-2-2-2--2-2--2-2--5--5-5------------3--3-3--3-3-3-3--3-3--3-3--7--7-7--7-7-7-7--7-7--7-7-|
A|-0--0-0--0-0-0-0--0-0--0-0--3--3-3------------3--3-3--3-3-3-3--3-3--3-3--5--5-5--5-5-5-5--5-5--5-5-|
E|----------------------------------------------1--1-1--1-1-1-1--1-1--1-1----------------------------|

e|------------------------------------5--3---0-------------------------------------------------------|
B|---------------------------------------------------------------------------------------------------|
G|-2--2-2--2-2-2-2--2-2--2-2--5--5-5---------------------------------------7--7-7--7-7-7-7--7-7--7-7-|
D|-2--2-2--2-2-2-2--2-2--2-2--5--5-5------------3--3-3--3-3-3-3--3-3--3-3--7--7-7--7-7-7-7--7-7--7-7-|
A|-0--0-0--0-0-0-0--0-0--0-0--3--3-3------------3--3-3--3-3-3-3--3-3--3-3--5--5-5--5-5-5-5--5-5--5-5-|
E|----------------------------------------------1--1-1--1-1-1-1--1-1--1-1----------------------------|

[Ending]
e|----------|
B|----------|
G|-2--------|
D|-2--------|
A|-0--------|
E|----------|

            
            
Suggest correction
Creating personal tab
Creating personal tab
You can edit any tab online and save it as your Personal.

You can edit, replace or remove any tab part or add personal notes – all changes will be seen only by you.

Personal tabs can be accessed anytime from any device, even offline.
Learn more »
Give kudos to tab author, rate the tab!
1 2 3 4 5
comments
print report bad tab
guest
You may want to rate the tab now too:
select rating
Wanna post a correction for this tab? Suggest correction