Oops, an error
Loading. Please wait.

Its Been So Long bass

754 views 1 this week
1 commentread comment
1 2 3 4 5
1 last vote to show rating
add to favorites
×
Save as Personal and add changes to this tab that will be seen only by you. Learn more ›
×
You can save this tab as Personal to edit and correct it or add notes. All changes will be seen only by you. Learn more »
launch autoscroll
font size
0
reset
guitar tuner
edit
Autoscroll
slow
fast
+/-
esc
set tempo
stop
Author
Difficulty
verse
g------------------------------------------------------|
d------------------------------------------------------|
a---------0-0-2-2--------------------------------------|
e-0-0-0-0----------------------------------------------|

Alt. verse or bridge
g------------------------------------------------------|
d------------------------------------------------------|
a-0-0-0-0-2-2-2-2--------------------------------------|
e-----------------0-0-0-0-0-0-0-0----------------------|

Chrous
g------------------------------------------------------|
d------------------------------------------------------|
a---------3-3-3-3-5-5-5-5-0-0-0-0----------------------|
e-0-0-0-0----------------------------------------------|

This is all of it except for the bass behind the solo.  its just too hard to hear on 
to figure out.
Suggest correction
Creating personal tab
Creating personal tab
You can edit any tab online and save it as your Personal.

You can edit, replace or remove any tab part or add personal notes – all changes will be seen only by you.

Personal tabs can be accessed anytime from any device, even offline.
Learn more »
Give kudos to tab author, rate the tab!
1 2 3 4 5
comments
print report bad tab
1 comment total.
+1 reply
DespairGirl 434 Aug 22, 2007 06:15 PM

i seriously tabbed this whole song out without checking if someone already did it. oh well. i did it too high anyways. like yours better.

BUT, i think i got the guitar solo part.

something like
G|--------------------------------------|
D|--------------------------------------|
A|-5-5-5-5-0-0-0-0-8-8-8-8-10-10-10-10--| X3
E|--------------------------------------|

G|---------------------------------|
D|---------------------------------|
A|---------------------------------|
E|-5-5-5-5-0-0-0-0-8-8-8-8-10~-11~-|

let me kno what you think of that.

guest
You may want to rate the tab now too:
select rating
Wanna post a correction for this tab? Suggest correction