Oops, an error
Loading. Please wait.

Walk Like A Zombie tab

version 2
version 2

Whole song

25 views 1 this week
no commentswrite comment
1 2 3 4 5
3 more votes to show rating
add to favorites
×
Save as Personal and add changes to this tab that will be seen only by you. Learn more ›
×
You can save this tab as Personal to edit and correct it or add notes. All changes will be seen only by you. Learn more »
launch autoscroll
font size
0
reset
how to read this tab
guitar tuner
edit
Autoscroll
slow
fast
+/-
esc
set tempo
stop
[Intro]
e|------------------------------------------------------------------------------|
B|------------------------------------------------------------------------------|
G|------9~-----------9---7---9---5~-----------9---7--------------------------9~-|
D|-7----------5/7----------------------5/7------------7~-----5/7---10---7-------|
A|------------------------------------------------------------------------------|
E|------------------------------------------------------------------------------|

[Verse]
e|---------------------------------------------------------------------------------------|
B|---------------------------------------------------------------------------------------|
G|---------------------------------------------------------------------------------------|
D|---------------------------------------------------------------------------------------|
A|---------------------------------------------3---3-3---3-3---3-3---3-3---3-3---3-3---3-|
E|--5---5-5---5-5---5-5---5-5---5-5---5-5---5--------------------------------------------|
 *****************************************************************************************

e|--------------------------------------------------------------------------------------|
B|--------------------------------------------------------------------------------------|
G|--------------------------------------------------------------------------------------|
D|-------7-----------7-----------7---------7--------------------------------------------|
A|-8---8-8---8-8---8-8---8-8---8-8---8-8---8--5---5-5---5-5---5-5---5-5---5-5---5-5---5-|
E|--------------------------------------------------------------------------------------|
*****************************************************************************************

e|---------------------------------------------------------------------------------------|
B|---------------------------------------------------------------------------------------|
G|---------------------------------------------------------------------------------------|
D|---------------------------------------------------------------------------------------|
A|---------------------------------------------3---3-3---3-3---3-3---3-3---3-3---3-3---3-|
E|--5---5-5---5-5---5-5---5-5---5-5---5-5---5--------------------------------------------|
 *****************************************************************************************

e|--------------------------------------------------------------------------------------|
B|--------------------------------------------------------------------------------------|
G|--------------------------------------------------------------------------------------|
D|-------7-----------7-----------7---------7--------------------------------------------|
A|-8---8-8---8-8---8-8---8-8---8-8---8-8---8--5---5-5---5-5---5-5---5-5---5-5---5-5---5-|
E|--------------------------------------------------------------------------------------|
*****************************************************************************************

[Chorus]
e|----------------------------------------------------------|
B|----------------------------------------------------------|
G|------------------------------9-9--9-9-9--9-9-9--9-9-9--9-|
D|-7-7--7-7-7--7-7-7--7-7-7--7--9-9--9-9-9--9-9-9--9-9-9--9-|
A|-7-7--7-7-7--7-7-7--7-7-7--7--7-7--7-7-7--7-7-7--7-7-7--7-|
E|-5-5--5-5-5--5-5-5--5-5-5--5------------------------------|

e|----------------------------------------------------------|
B|----------------------------------------------------------|
G|-5-5--5-5-5--5-5-5--5-5-5--5--7-7--7-7-7--7-7-7--7-7-7--7-|
D|-5-5--5-5-5--5-5-5--5-5-5--5--7-7--7-7-7--7-7-7--7-7-7--7-|
A|-3-3--3-3-3--3-3-3--3-3-3--3--5-5--5-5-5--5-5-5--5-5-5--5-|
E|----------------------------------------------------------|

e|----------------------------------------------------------|
B|----------------------------------------------------------|
G|------------------------------9-9--9-9-9--9-9-9--9-9-9--9-|
D|-7-7--7-7-7--7-7-7--7-7-7--7--9-9--9-9-9--9-9-9--9-9-9--9-|
A|-7-7--7-7-7--7-7-7--7-7-7--7--7-7--7-7-7--7-7-7--7-7-7--7-|
E|-5-5--5-5-5--5-5-5--5-5-5--5------------------------------|

e|----------------------------------------------------------|
B|----------------------------------------------------------|
G|-5-5--5-5-5--5-5-5--5-5-5--5--7-7--7-7-7--7-7-7--7-7-7--7-|
D|-5-5--5-5-5--5-5-5--5-5-5--5--7-7--7-7-7--7-7-7--7-7-7--7-|
A|-3-3--3-3-3--3-3-3--3-3-3--3--5-5--5-5-5--5-5-5--5-5-5--5-|
E|----------------------------------------------------------|

[Verse]
e|------------------------------------------------------------------------------|
B|------------------------------------------------------------------------------|
G|------9~-----------9---7---9---5~-----------9---7--------------------------9~-|
D|-7----------5/7----------------------5/7------------7~-----5/7---10---7-------|
A|------------------------------------------------------------------------------|
E|------------------------------------------------------------------------------|

e|----------------------------------------------------------------|
B|----------------------------------------------------------------|
G|----------------------------------------------------------------|
D|----------------------------------------------------------------|
A|----------------------------------------------------------------|
E|----------------------------------------------------------------|

e|--------------------------------------------------------------------------------------|
B|--------------------------------------------------------------------------------------|
G|--------------------------------------------------------------------------------------|
D|-------7-----------7-----------7---------7--------------------------------------------|
A|-8---8-8---8-8---8-8---8-8---8-8---8-8---8--5---5-5---5-5---5-5---5-5---5-5---5-5---5-|
E|--------------------------------------------------------------------------------------|
*****************************************************************************************

e|---------------------------------------------------------------------------------------|
B|---------------------------------------------------------------------------------------|
G|---------------------------------------------------------------------------------------|
D|---------------------------------------------------------------------------------------|
A|---------------------------------------------3---3-3---3-3---3-3---3-3---3-3---3-3---3-|
E|--5---5-5---5-5---5-5---5-5---5-5---5-5---5--------------------------------------------|
 *****************************************************************************************

e|--------------------------------------------------------------------------------------|
B|--------------------------------------------------------------------------------------|
G|--------------------------------------------------------------------------------------|
D|-------7-----------7-----------7---------7--------------------------------------------|
A|-8---8-8---8-8---8-8---8-8---8-8---8-8---8--5---5-5---5-5---5-5---5-5---5-5---5-5---5-|
E|--------------------------------------------------------------------------------------|
*****************************************************************************************

[Chorus]
e|----------------------------------------------------------|
B|----------------------------------------------------------|
G|------------------------------9-9--9-9-9--9-9-9--9-9-9--9-|
D|-7-7--7-7-7--7-7-7--7-7-7--7--9-9--9-9-9--9-9-9--9-9-9--9-|
A|-7-7--7-7-7--7-7-7--7-7-7--7--7-7--7-7-7--7-7-7--7-7-7--7-|
E|-5-5--5-5-5--5-5-5--5-5-5--5------------------------------|

e|----------------------------------------------------------|
B|----------------------------------------------------------|
G|-5-5--5-5-5--5-5-5--5-5-5--5--7-7--7-7-7--7-7-7--7-7-7--7-|
D|-5-5--5-5-5--5-5-5--5-5-5--5--7-7--7-7-7--7-7-7--7-7-7--7-|
A|-3-3--3-3-3--3-3-3--3-3-3--3--5-5--5-5-5--5-5-5--5-5-5--5-|
E|----------------------------------------------------------|

e|----------------------------------------------------------|
B|----------------------------------------------------------|
G|------------------------------9-9--9-9-9--9-9-9--9-9-9--9-|
D|-7-7--7-7-7--7-7-7--7-7-7--7--9-9--9-9-9--9-9-9--9-9-9--9-|
A|-7-7--7-7-7--7-7-7--7-7-7--7--7-7--7-7-7--7-7-7--7-7-7--7-|
E|-5-5--5-5-5--5-5-5--5-5-5--5------------------------------|

e|----------------------------------------------------------|
B|----------------------------------------------------------|
G|-5-5--5-5-5--5-5-5--5-5-5--5--7-7--7-7-7--7-7-7--7-7-7--7-|
D|-5-5--5-5-5--5-5-5--5-5-5--5--7-7--7-7-7--7-7-7--7-7-7--7-|
A|-3-3--3-3-3--3-3-3--3-3-3--3--5-5--5-5-5--5-5-5--5-5-5--5-|
E|----------------------------------------------------------|

[Solo]
e|-0h1-0h1-0h1-0h1-0h1-0h1-0h1-0h1-0h1-0h1-0---0--1---0---3---1---0------------------------------------------|
B|-------------------------------------------------------------------3---0--1--3---1--0------0--1--0--3---1--|
G|----------------------------------------------------------------------------------------2------------------|
D|-----------------------------------------------------------------------------------------------------------|
A|-----------------------------------------------------------------------------------------------------------|
E|-----------------------------------------------------------------------------------------------------------|

e|---------------------------------3---1---0-----------------------------------------------------------------|
B|-0-----0--3---1--0------0--1--0------------0---3---1--0--1--3---1--0----0--0--0--0--1--1--1--1--3--3--3--3-|
G|----2---------------2-------------------------------------------------2------------------------------------|
D|-----------------------------------------------------------------------------------------------------------|
A|-----------------------------------------------------------------------------------------------------------|
E|-----------------------------------------------------------------------------------------------------------|

e|-0--0--0--0--0--------------------------------------0--0--0--0--0--|
B|----------------0--0--0--0--1--1--1--1--3--3--3--3-----------------|
G|-------------------------------------------------------------------|
D|-------------------------------------------------------------------|
A|-------------------------------------------------------------------|
E|-------------------------------------------------------------------|

e|-3--1--0-----3---1--0--1-----5---3--2------9--9--9--9--9--9--9--7--7--7--7--7--7--7-------------|
B|---------0~~-0---0--0--0-----0---0--0------9--9--9--9--9--9--9--7--7--7--7--7--7--7---3---3--3~-|
G|---------------------------------------4~-------------------------------------------------------|
D|------------------------------------------------------------------------------------------------|
A|------------------------------------------------------------------------------------------------|
E|------------------------------------------------------------------------------------------------|

[Chorus]
e|----------------------------------------------------------|
B|----------------------------------------------------------|
G|------------------------------9-9--9-9-9--9-9-9--9-9-9--9-|
D|-7-7--7-7-7--7-7-7--7-7-7--7--9-9--9-9-9--9-9-9--9-9-9--9-|
A|-7-7--7-7-7--7-7-7--7-7-7--7--7-7--7-7-7--7-7-7--7-7-7--7-|
E|-5-5--5-5-5--5-5-5--5-5-5--5------------------------------|

e|----------------------------------------------------------|
B|----------------------------------------------------------|
G|-5-5--5-5-5--5-5-5--5-5-5--5--7-7--7-7-7--7-7-7--7-7-7--7-|
D|-5-5--5-5-5--5-5-5--5-5-5--5--7-7--7-7-7--7-7-7--7-7-7--7-|
A|-3-3--3-3-3--3-3-3--3-3-3--3--5-5--5-5-5--5-5-5--5-5-5--5-|
E|----------------------------------------------------------|

e|----------------------------------------------------------|
B|----------------------------------------------------------|
G|------------------------------9-9--9-9-9--9-9-9--9-9-9--9-|
D|-7-7--7-7-7--7-7-7--7-7-7--7--9-9--9-9-9--9-9-9--9-9-9--9-|
A|-7-7--7-7-7--7-7-7--7-7-7--7--7-7--7-7-7--7-7-7--7-7-7--7-|
E|-5-5--5-5-5--5-5-5--5-5-5--5------------------------------|

e|----------------------------------------------------------|
B|----------------------------------------------------------|
G|-5-5--5-5-5--5-5-5--5-5-5--5--7-7--7-7-7--7-7-7--7-7-7--7-|
D|-5-5--5-5-5--5-5-5--5-5-5--5--7-7--7-7-7--7-7-7--7-7-7--7-|
A|-3-3--3-3-3--3-3-3--3-3-3--3--5-5--5-5-5--5-5-5--5-5-5--5-|
E|----------------------------------------------------------|

[Outro]
e|----------------------------------------------------------|
B|----------------------------------------------------------|
G|------------------------------9-9--9-9-9--9-9-9--9-9-9--9-|
D|-7-7--7-7-7--7-7-7--7-7-7--7--9-9--9-9-9--9-9-9--9-9-9--9-|
A|-7-7--7-7-7--7-7-7--7-7-7--7--7-7--7-7-7--7-7-7--7-7-7--7-|
E|-5-5--5-5-5--5-5-5--5-5-5--5------------------------------|

e|----------------------------------------------------------|
B|----------------------------------------------------------|
G|-5-5--5-5-5--5-5-5--5-5-5--5--7-7--7-7-7--7-7-7--7-7-7--7-|
D|-5-5--5-5-5--5-5-5--5-5-5--5--7-7--7-7-7--7-7-7--7-7-7--7-|
A|-3-3--3-3-3--3-3-3--3-3-3--3--5-5--5-5-5--5-5-5--5-5-5--5-|
E|----------------------------------------------------------|

e|----------------------------------------------------------|
B|----------------------------------------------------------|
G|------------------------------9-9--9-9-9--9-9-9--9-9-9--9-|
D|-7-7--7-7-7--7-7-7--7-7-7--7--9-9--9-9-9--9-9-9--9-9-9--9-|
A|-7-7--7-7-7--7-7-7--7-7-7--7--7-7--7-7-7--7-7-7--7-7-7--7-|
E|-5-5--5-5-5--5-5-5--5-5-5--5------------------------------|

e|---------------------------------------------------------------|
B|---------------------------------------------------------------|
G|-5-5--5-5-5--5-5-5--5-5-5--5--7-7--7-7-7--7-7-7--7-7-7--7--5---|
D|-5-5--5-5-5--5-5-5--5-5-5--5--7-7--7-7-7--7-7-7--7-7-7--7--5---|
A|-3-3--3-3-3--3-3-3--3-3-3--3--5-5--5-5-5--5-5-5--5-5-5--5--3---|
E|---------------------------------------------------------------|



************************************

| ~  Vibrato
| /  Slide up
| h  Hammer-on
| *  palm muted

************************************

            
            
Suggest correction
Creating personal tab
Creating personal tab
You can edit any tab online and save it as your Personal.

You can edit, replace or remove any tab part or add personal notes – all changes will be seen only by you.

Personal tabs can be accessed anytime from any device, even offline.
Learn more »
Give kudos to tab author, rate the tab!
1 2 3 4 5
comments
print report bad tab
guest
You may want to rate the tab now too:
select rating
Wanna post a correction for this tab? Suggest correction