Oops, an error
Loading. Please wait.

Where They Wander tab

23 views 1 this week
no commentswrite comment
1 2 3 4 5
3 more votes to show rating
add to favorites
×
Save as Personal and add changes to this tab that will be seen only by you. Learn more ›
×
You can save this tab as Personal to edit and correct it or add notes. All changes will be seen only by you. Learn more »
launch autoscroll
font size
0
reset
how to read this tab
guitar tuner
edit
Autoscroll
slow
fast
+/-
esc
set tempo
stop
[Intro]
e|-----------------------------------------------------------------------------------------|
B|-----------------------------------------------------------------------------------------|
G|-----------------------5--5--5--5-5----------7--7--7--7-7----------3--3--3--3-3----------|
D|-3--3--3--3-3--7-5-4-5-5--5--5--5-5--7-5-4-5-7--7--7--7-7--7-5-4-5-3--3--3--3-3--7-5-4-5-|
A|-3--3--3--3-3----------3--3--3--3-3----------5--5--5--5-5----------1--1--1--1-1----------|
E|-1--1--1--1-1----------------------------------------------------------------------------|

e|--------------------------------------------------------------------------------|
B|--------------------------------------------------------------------------------|
G|-----------------------5--5--5--5-5----------7--7--7--7-7----------3--3--3--3-3-|
D|-3--3--3--3-3--7-5-4-5-5--5--5--5-5--7-5-4-5-7--7--7--7-7--7-5-4-5-3--3--3--3-3-|
A|-3--3--3--3-3----------3--3--3--3-3----------5--5--5--5-5----------1--1--1--1-1-|
E|-1--1--1--1-1-------------------------------------------------------------------|

e|----------------------|----------------------|
B|----------------------|----------------------|
G|----------------------|----------------------|
D|-7~--7-9-10-9-7-9-7~--|--7~--7-9-10-9-7-9-7~-|
A|----------------------|----------------------|
E|----------------------|----------------------|

[Verse]
e|-x-x-x-x-x-x-x-x-x-x-x-x-x-x-x-x-|-x-x-x-x-x-x-x-x-x-x-x-x-x-x-x-x-|
B|-x-x-x-x-x-x-x-x-x-x-x-x-x-x-x-x-|-x-x-x-x-x-x-x-x-x-x-x-x-x-x-x-x-|
G|-x-x-x-x-x-x-x-x-x-x-x-x-x-x-x-x-|-x-x-x-x-x-x-x-x-x-x-x-x-x-x-x-x-|
D|-x-x-x-x-x-x-x-x-x-x-x-x-x-x-x-x-|-x-x-x-x-x-x-x-x-x-x-x-x-x-x-x-x-|
A|-x-x-x-x-x-x-x-x-x-x-x-x-x-x-x-x-|-x-x-x-x-x-x-x-x-x-x-x-x-x-x-x-x-|
E|-x-x-x-x-x-x-x-x-x-x-x-x-x-x-x-x-|-x-x-x-x-x-x-x-x-x-x-x-x-x-x-x-x-|
  ********************************   ********************************  

e|-x-x-x-x-x-x-x-x-x-x-x-x-x-x-x-x-|-x-x-x-x-x-x-x-x-x-x-x-x-x-x-x-x-|
B|-x-x-x-x-x-x-x-x-x-x-x-x-x-x-x-x-|-x-x-x-x-x-x-x-x-x-x-x-x-x-x-x-x-|
G|-x-x-x-x-x-x-x-x-x-x-x-x-x-x-x-x-|-x-x-x-x-x-x-x-x-x-x-x-x-x-x-x-x-|
D|-x-x-x-x-x-x-x-x-x-x-x-x-x-x-x-x-|-x-x-x-x-x-x-x-x-x-x-x-x-x-x-x-x-|
A|-x-x-x-x-x-x-x-x-x-x-x-x-x-x-x-x-|-x-x-x-x-x-x-x-x-x-x-x-x-x-x-x-x-|
E|-x-x-x-x-x-x-x-x-x-x-x-x-x-x-x-x-|-x-x-x-x-x-x-x-x-x-x-x-x-x-x-x-x-|
  ********************************   ********************************  

[Pre-chorus]
e|--------------------------------------------------------------------------------------------|
B|--------------------------------------------------------------------------------------------|
G|-3--3--3--3-3--3-3-3-3--5--5--5--5-5--5-5-5-5--7--7--7--7-7--7-7-7-7--7--7--7--7-7--7-7-7-7-|
D|-3--3--3--3-3--3-3-3-3--5--5--5--5-5--5-5-5-5--7--7--7--7-7--7-7-7-7--7--7--7--7-7--7-7-7-7-|
A|-1--1--1--1-1--1-1-1-1--3--3--3--3-3--3-3-3-3--5--5--5--5-5--5-5-5-5--5--5--5--5-5--5-5-5-5-|
E|--------------------------------------------------------------------------------------------|

e|--------------------------------------------------------------------------------------------|
B|--------------------------------------------------------------------------------------------|
G|-3--3--3--3-3--3-3-3-3--5--5--5--5-5--5-5-5-5--2--2--2--2-2--2-2-2-2--2--2--2--2-2--2-2-2-2-|
D|-3--3--3--3-3--3-3-3-3--5--5--5--5-5--5-5-5-5--2--2--2--2-2--2-2-2-2--2--2--2--2-2--2-2-2-2-|
A|-1--1--1--1-1--1-1-1-1--3--3--3--3-3--3-3-3-3--0--0--0--0-0--0-0-0-0--0--0--0--0-0--0-0-0-0-|
E|--------------------------------------------------------------------------------------------|

[Chorus]
e|--------------------------------------------------------------------------------------------|
B|--------------------------------------------------------------------------------------------|
G|------------------------5--5--5--5-5--5-5-5-5--7--7--7--7-7--7-7-7-7--3--3--3--3-3--3-3-3-3-|
D|-3--3--3--3-3--3-3-3-3--5--5--5--5-5--5-5-5-5--7--7--7--7-7--7-7-7-7--3--3--3--3-3--3-3-3-3-|
A|-3--3--3--3-3--3-3-3-3--3--3--3--3-3--3-3-3-3--5--5--5--5-5--5-5-5-5--1--1--1--1-1--1-1-1-1-|
E|-1--1--1--1-1--1-1-1-1----------------------------------------------------------------------|

e|--------------------------------------------------------------------------------------------|
B|--------------------------------------------------------------------------------------------|
G|------------------------5--5--5--5-5--5-5-5-5--7--7--7--7-7--7-7-7-7--3--3--3--3-3--3-3-3-3-|
D|-3--3--3--3-3--3-3-3-3--5--5--5--5-5--5-5-5-5--7--7--7--7-7--7-7-7-7--3--3--3--3-3--3-3-3-3-|
A|-3--3--3--3-3--3-3-3-3--3--3--3--3-3--3-3-3-3--5--5--5--5-5--5-5-5-5--1--1--1--1-1--1-1-1-1-|
E|-1--1--1--1-1--1-1-1-1----------------------------------------------------------------------|

[Riff]
e|----------------------|----------------------|
B|----------------------|----------------------|
G|----------------------|----------------------|
D|-7~--7-9-10-9-7-9-7~--|--7~--7-9-10-9-7-9-7~-|
A|----------------------|----------------------|
E|----------------------|----------------------|

[Verse]
e|-x-x-x-x-x-x-x-x-x-x-x-x-x-x-x-x-|-x-x-x-x-x-x-x-x-x-x-x-x-x-x-x-x-|
B|-x-x-x-x-x-x-x-x-x-x-x-x-x-x-x-x-|-x-x-x-x-x-x-x-x-x-x-x-x-x-x-x-x-|
G|-x-x-x-x-x-x-x-x-x-x-x-x-x-x-x-x-|-x-x-x-x-x-x-x-x-x-x-x-x-x-x-x-x-|
D|-x-x-x-x-x-x-x-x-x-x-x-x-x-x-x-x-|-x-x-x-x-x-x-x-x-x-x-x-x-x-x-x-x-|
A|-x-x-x-x-x-x-x-x-x-x-x-x-x-x-x-x-|-x-x-x-x-x-x-x-x-x-x-x-x-x-x-x-x-|
E|-x-x-x-x-x-x-x-x-x-x-x-x-x-x-x-x-|-x-x-x-x-x-x-x-x-x-x-x-x-x-x-x-x-|
  ********************************   ********************************  

e|-x-x-x-x-x-x-x-x-x-x-x-x-x-x-x-x-|-x-x-x-x-x-x-x-x-x-x-x-x-x-x-x-x-|
B|-x-x-x-x-x-x-x-x-x-x-x-x-x-x-x-x-|-x-x-x-x-x-x-x-x-x-x-x-x-x-x-x-x-|
G|-x-x-x-x-x-x-x-x-x-x-x-x-x-x-x-x-|-x-x-x-x-x-x-x-x-x-x-x-x-x-x-x-x-|
D|-x-x-x-x-x-x-x-x-x-x-x-x-x-x-x-x-|-x-x-x-x-x-x-x-x-x-x-x-x-x-x-x-x-|
A|-x-x-x-x-x-x-x-x-x-x-x-x-x-x-x-x-|-x-x-x-x-x-x-x-x-x-x-x-x-x-x-x-x-|
E|-x-x-x-x-x-x-x-x-x-x-x-x-x-x-x-x-|-x-x-x-x-x-x-x-x-x-x-x-x-x-x-x-x-|
  ********************************   ********************************  

[Pre-chorus]
e|--------------------------------------------------------------------------------------------|
B|--------------------------------------------------------------------------------------------|
G|-3--3--3--3-3--3-3-3-3--5--5--5--5-5--5-5-5-5--7--7--7--7-7--7-7-7-7--7--7--7--7-7--7-7-7-7-|
D|-3--3--3--3-3--3-3-3-3--5--5--5--5-5--5-5-5-5--7--7--7--7-7--7-7-7-7--7--7--7--7-7--7-7-7-7-|
A|-1--1--1--1-1--1-1-1-1--3--3--3--3-3--3-3-3-3--5--5--5--5-5--5-5-5-5--5--5--5--5-5--5-5-5-5-|
E|--------------------------------------------------------------------------------------------|

e|--------------------------------------------------------------------------------------------|
B|--------------------------------------------------------------------------------------------|
G|-3--3--3--3-3--3-3-3-3--5--5--5--5-5--5-5-5-5--2--2--2--2-2--2-2-2-2--2--2--2--2-2--2-2-2-2-|
D|-3--3--3--3-3--3-3-3-3--5--5--5--5-5--5-5-5-5--2--2--2--2-2--2-2-2-2--2--2--2--2-2--2-2-2-2-|
A|-1--1--1--1-1--1-1-1-1--3--3--3--3-3--3-3-3-3--0--0--0--0-0--0-0-0-0--0--0--0--0-0--0-0-0-0-|
E|--------------------------------------------------------------------------------------------|

[Chorus]
e|--------------------------------------------------------------------------------------------|
B|--------------------------------------------------------------------------------------------|
G|------------------------5--5--5--5-5--5-5-5-5--7--7--7--7-7--7-7-7-7--3--3--3--3-3--3-3-3-3-|
D|-3--3--3--3-3--3-3-3-3--5--5--5--5-5--5-5-5-5--7--7--7--7-7--7-7-7-7--3--3--3--3-3--3-3-3-3-|
A|-3--3--3--3-3--3-3-3-3--3--3--3--3-3--3-3-3-3--5--5--5--5-5--5-5-5-5--1--1--1--1-1--1-1-1-1-|
E|-1--1--1--1-1--1-1-1-1----------------------------------------------------------------------|

e|--------------------------------------------------------------------------------------------|
B|--------------------------------------------------------------------------------------------|
G|------------------------5--5--5--5-5--5-5-5-5--7--7--7--7-7--7-7-7-7--3--3--3--3-3--3-3-3-3-|
D|-3--3--3--3-3--3-3-3-3--5--5--5--5-5--5-5-5-5--7--7--7--7-7--7-7-7-7--3--3--3--3-3--3-3-3-3-|
A|-3--3--3--3-3--3-3-3-3--3--3--3--3-3--3-3-3-3--5--5--5--5-5--5-5-5-5--1--1--1--1-1--1-1-1-1-|
E|-1--1--1--1-1--1-1-1-1----------------------------------------------------------------------|

[Riff]
e|----------------------|----------------------|
B|----------------------|----------------------|
G|----------------------|----------------------|
D|-7~--7-9-10-9-7-9-7~--|--7~--7-9-10-9-7-9-7~-|
A|----------------------|----------------------|
E|----------------------|----------------------|

[Chorus]
e|--------------------------------------------------------------------------------------------|
B|--------------------------------------------------------------------------------------------|
G|------------------------5--5--5--5-5--5-5-5-5--7--7--7--7-7--7-7-7-7--3--3--3--3-3--3-3-3-3-|
D|-3--3--3--3-3--3-3-3-3--5--5--5--5-5--5-5-5-5--7--7--7--7-7--7-7-7-7--3--3--3--3-3--3-3-3-3-|
A|-3--3--3--3-3--3-3-3-3--3--3--3--3-3--3-3-3-3--5--5--5--5-5--5-5-5-5--1--1--1--1-1--1-1-1-1-|
E|-1--1--1--1-1--1-1-1-1----------------------------------------------------------------------|

e|--------------------------------------------------------------------------------------------|
B|--------------------------------------------------------------------------------------------|
G|------------------------5--5--5--5-5--5-5-5-5--7--7--7--7-7--7-7-7-7--3--3--3--3-3--3-3-3-3-|
D|-3--3--3--3-3--3-3-3-3--5--5--5--5-5--5-5-5-5--7--7--7--7-7--7-7-7-7--3--3--3--3-3--3-3-3-3-|
A|-3--3--3--3-3--3-3-3-3--3--3--3--3-3--3-3-3-3--5--5--5--5-5--5-5-5-5--1--1--1--1-1--1-1-1-1-|
E|-1--1--1--1-1--1-1-1-1----------------------------------------------------------------------|

[Outro]
e|-----------------------------------------------------------------------------------------|
B|-----------------------------------------------------------------------------------------|
G|-----------------------5--5--5--5-5----------7--7--7--7-7----------3--3--3--3-3----------|
D|-3--3--3--3-3--7-5-4-5-5--5--5--5-5--7-5-4-5-7--7--7--7-7--7-5-4-5-3--3--3--3-3--7-5-4-5-|
A|-3--3--3--3-3----------3--3--3--3-3----------5--5--5--5-5----------1--1--1--1-1----------|
E|-1--1--1--1-1----------------------------------------------------------------------------|

e|--------------------------------------------------------------------------------------|
B|--------------------------------------------------------------------------------------|
G|-----------------------5--5--5--5-5----------7--7--7--7-7----------3--3--3--3-3---7…--|
D|-3--3--3--3-3--7-5-4-5-5--5--5--5-5--7-5-4-5-7--7--7--7-7--7-5-4-5-3--3--3--3-3---7…--|
A|-3--3--3--3-3----------3--3--3--3-3----------5--5--5--5-5----------1--1--1--1-1---5…--|
E|-1--1--1--1-1-------------------------------------------------------------------------|

************************************

| ~  tremolo
| x  muted string 
| … 
let ring
| * palm mute 

************************************

            
            
Suggest correction
Creating personal tab
Creating personal tab
You can edit any tab online and save it as your Personal.

You can edit, replace or remove any tab part or add personal notes – all changes will be seen only by you.

Personal tabs can be accessed anytime from any device, even offline.
Learn more »
Give kudos to tab author, rate the tab!
1 2 3 4 5
comments
print report bad tab
guest
You may want to rate the tab now too:
select rating
Wanna post a correction for this tab? Suggest correction