Oops, an error
Loading. Please wait.

And She Smiled Acoustic Chords

275 views 1 this week
no commentswrite comment
1 2 3 4 5
please rate
add to favorites
launch autoscroll
font size
0
reset
transpose
0
reset
simplify chords
display chords
guitar tuner
Autoscroll
slow
fast
+/-
esc
set tempo
stop
Help us to improve Ultimate-Guitar.com Take our survey!
×
Author
Difficulty
novice
Probably not 100% accurate, no guitar music by Horse online,
so gave it a go. Enjoy :)

Artist: Horse (Horse McDonald - Scottish female singer-songwriter) 
Song: And She Smiled (Acoustic Version)
From the Album: The Same Sky (1990)
----------------------------------------------------------------

MAIN RIFF                                                                               
   Em        G         Em     Cmaj/G
E|--0--0-0-3--3-3-3--0--0-0-0--0-0-0-|
B|--0--0-0-0--0-0-0--0--0-0-1--1-1-1-|
G|--0--0-0-0--0-0-0--0--0-0-0--0-0-0-|  INTRO: Repeat Main Riff 4 Times.
D|--2--2-2-0--0-0-0--2--2-2-2--2-2-2-|  "AWOOOOOOOOOOOOOOO" (Like a wolf howl)
A|--2--2-2-2--2-2-2--2--2-2-3--3-3-3-|  on the 2nd repeat, on Em.
E|--0--0-0-3--3-3-3--0--0-0-3--3-3-3-|

PLAY MAIN RIFF ^^^ ABOVE OVER...

***** VERSE ***********
Em     G         Em     Cmaj/G  
Do you find your kisses gone

Em    G          Em     Cmaj/G
When she kisses every---one ?

Em    G        E      Cmaj/G    
Mmm...pretty, pretty eyes

Em     G            Em*         
Didn't she take you by... 
                        
* PLAY THIS LEADING INTO CHORUS BELOW
|--0--0-0-0-|
|--0--0-0-0-|
|--0--0-0-0-|
|--2--2-2-2-|
|--2--2-2-2-|
|--0--0-0-0-|

CHORUS STRUMMING PATTERN
 (Sing like: Sur-Pry-yEyes)
 sur-------------------prise ?   She will lose you sleep                Under hori---zontal...
    Cmaj/G                              Cmaj/G                          Am   Am
E|--0--0-0-0--0--0-0-|--0--0-0-0--0--0-0-|--0--0-0-0--0--0-0-|--0--0-0-0--0--0-0-|
B|--1--1-1-1--1--1-1-|--1--1-1-1--1--1-1-|--1--1-1-1--1--1-1-|--1--1-1-1--1--1-1-|
G|--0--0-0-0--0--0-0-|--0--0-0-0--0--0-0-|--2--2-2-2--2--2-2-|--2--2-2-2--2--2-2-|
D|--2--2-2-2--2--2-2-|--2--2-2-2--2--2-2-|--2--2-2-2--2--2-2-|--2--2-2-2--2--2-2-|
A|--3--3-3-3--3--3-3-|--3--3-3-3--3--3-3-|--0--0-0-0--0--0-0-|--0--0-0-0--0--0-0-|
E|--3--3-3-3--3--3-3-|--3--3-3-3--3--3-3-|--0--0-0-0--0--0-0-|--0--0-0-0--0--0-0-|

********* CHORUS *************
Cmaj/G   Am
She will lose you sleep
Am                      Cmaj/G          Cmaj/G
Under hori--zontal command      She will
Am         Am
kick...    Kick you, kick you down at...

BACK TO MAIN RIFF
...heel                            At heel            La, La, La
                                                                                
   Em        G         Em     Cmaj/G    Em     G         Em     Cmaj/G
E|--0--0-0-3--3-3-3--0--0-0-0--0-0-0-|--0--0-0-3--3-3-3--0--0-0-0--0-0-0-|
B|--0--0-0-0--0-0-0--0--0-0-1--1-1-1-|--0--0-0-0--0-0-0--0--0-0-1--1-1-1-|
G|--0--0-0-0--0-0-0--0--0-0-0--0-0-0-|--0--0-0-0--0-0-0--0--0-0-0--0-0-0-|
D|--2--2-2-0--0-0-0--2--2-2-2--2-2-2-|--2--2-2-0--0-0-0--2--2-2-2--2-2-2-|
A|--2--2-2-2--2-2-2--2--2-2-3--3-3-3-|--2--2-2-2--2-2-2--2--2-2-3--3-3-3-|
E|--0--0-0-3--3-3-3--0--0-0-3--3-3-3-|--0--0-0-3--3-3-3--0--0-0-3--3-3-3-|

********* VERSE *************
Em   G     Em          Cmaj/G)
Two shoes, Toulouse you lose
Em    G          Em             Cmaj/G)
Kiss-yous, miss-yous what's the use p.s?
Em   G         Em      Cmaj/G)
"I loved you", and she smiled
Em          G        Em*         
The caustic croon of something...

********* CHORUS *******
Cmaj/G     Cmaj/G    Am        Am          Cmaj/G     Cmaj/G 
w----ild    She will lose you sleep  Under horizontal command
Am               Am
She will kick...Kick you, kick you down at.. (Deep breath)

..he-------------------------------------------el   Oh, Oh

        F                                       Cmaj/G              Cmaj/G  (Let Cmaj/G ring out)
E|--0--0-0--0--0-0-|--0--0-0--0-0-0-|--0-0--0--0-0-|-------------|
B|--1--1-1--1--1-1-|--1--1-1--1-1-1-|--1-1--1--1-1-|-------------|
G|--2--2-2--2--2-2-|--0--0-0--0-0-0-|--0-0--0--0-0-|-------------|
D|--3--3-3--3--3-3-|--2--2-2--2-2-2-|--2-2--2--2-2-|-------------|
A|--3--3-3--3--3-3-|--3--3-3--3-3-3-|--3-3--3--3-3-|-------------|
E|--0--0-0--0--0-0-|--3--3-3--3-3-3-|--3-3--3--3-3-|-------------|

Pretty baby,pretty heart,pretty Pretty pretty high,               pretty low,

Am (Strum down, let ring out)     F(Strum down, muffle up, strum down)
|--0-^-----------------|-------------------|--0-^-X-1-Ring out|
|--1-^-----------------|-------------------|--1-^-X-1---------|
|--2-^-----------------|-------------------|--2-^-X-2---------|
|--2-^-----------------|-------------------|--3-^-X-3---------|
|--0-^-----------------|-------------------|--3-^-X-3---------|
|--0-^-----------------|-------------------|--X-^-0-----------|

Pretty angel, pretty pretty Pretty  dumb,               pretty smart.
F          Am                        F                  F
|--0-^-X-1-0-------|---------------|-0--0-0--0--0-0-0-|-0--0-0--0--0-0-0-|
|--1-^-X-1-1-------|---------------|-1--1-1--1--1-1-1-|-1--1-1--1--1-1-1-|
|--2-^-X-2-2-------|---------------|-2--2-2--2--2-2-2-|-2--2-2--2--2-2-2-|
|--3-^-X-3-2-------|---------------|-3--3-3--3--3-3-3-|-3--3-3--3--3-3-3-|
|--3-^-X-3-0-------|---------------|-3--3-3--3--3-3-3-|-3--3-3--3--3-3-3-|
|--X-^-0-----------|---------------|-0--0-0--0--0-0-0-|-0--0-0--0--0-0-0-|

                   Em... PLAY MAIN RIFF 2 TIMES
..and she smiled

********* VERSE *************
 Em     G      Em    Cmaj/G     
I-I-don't know what to do,
 Em     G      Em    Cmaj/G     
To keep myself in love with you.
 Em     G      Em   Cmaj/G      
Life is made of ones and twos
 Em    G      Em     Cmaj/G     
I just know I'm going to..lose.

********* CHORUS *******
Cmaj/G,   Cmaj/G   Am       Am
lo----se. She will lose you sleep
Cmaj/G,   Cmaj/G   Am       Am
Under         horiz---ontal command
Cmaj/G,   Cmaj/G   Am       Am
She will kick... Kick you, kick you down at..(Deep breath again)

..he-------------------------------------------el   Oh, Oh

        F                   Cmaj/G           Cmaj/G     Let Cmaj/G ring out)
E|--0--0-0--0--0-0-|--0--0-0--0-0-0-|--0-0--0--0-0-|-------------|
B|--1--1-1--1--1-1-|--1--1-1--1-1-1-|--1-1--1--1-1-|-------------|
G|--2--2-2--2--2-2-|--0--0-0--0-0-0-|--0-0--0--0-0-|-------------|
D|--3--3-3--3--3-3-|--2--2-2--2-2-2-|--2-2--2--2-2-|-------------|
A|--3--3-3--3--3-3-|--3--3-3--3-3-3-|--3-3--3--3-3-|-------------|
E|--0--0-0--0--0-0-|--3--3-3--3-3-3-|--3-3--3--3-3-|-------------|

Am                                              F
Pretty baby, pretty heart, pretty Pretty pretty high, pretty low,
Am                                 F
Pretty angel, pretty pretty Pretty dumb, pretty smart.
Am                                              F
Pretty baby, pretty heart, pretty Pretty pretty sound, pretty sharp,
Am           Am
Pretty angel,pretty angel
F             F
Pretty pretty, pretty pretty
Am           Am                                 F              F
Pretty baby, pretty heart, pretty pretty pretty high, pretty low. and she...

Em     G      Em      Cmaj/G      | Em       G      Em      Cmaj/G |   
smiled                   ..and she smiled

G      Em      Cmaj/G |
..and she smiled

PLAY MAIN RIFF Em/G/Em/Cmaj/G until end.
** She sings something like this. **
mmmm...
mmm mmm ah
mmm ahh ahh
mmm ahh ahh, mm mm ah ah                                                         Em!
ba ba ba ba ba ba ba ba ba ba ba ba ba ba ba ba ba ba ba ba ba ba ba ba ba ba ba BAH!

Tabbed by: Scottish James
**********************************
Suggest correction new What's this?
You can suggest a correction to this tab. Community and Mods will review your correction and vote to approve or reject it.
comments
We did not receive enough feedback on this tab! Please rate:
print report bad tab
1 2 3 4 5
guest
You may want to rate the tab now too:
select rating
Please do not post tabs as comments. Select "correction" instead!