Oops, an error
Loading. Please wait.

Cutsman bass

version 2
version 2

Whole song

Interactive

839 views 1 this week
4 commentsread comments
1 2 3 4 5
2 more votes to show rating
add to favorites
×
Save as Personal and add changes to this tab that will be seen only by you. Learn more ›
×
You can save this tab as Personal to edit and correct it or add notes. All changes will be seen only by you. Learn more »
launch autoscroll
font size
0
reset
guitar tuner
edit
Autoscroll
slow
fast
+/-
esc
set tempo
stop
Author
Difficulty
0| = cut note off
0* = let note ring
0/5 = slide from note to note

Intro:

D|--4|-----4-0|-----0-2*----------------------------|
A|---------------------------2|---4444444444444444--|
D|--------------------------------------------------|
G|--------------------------------------------------|


Then straight into the verse.
(very fast picking)

D|--4444(x8)-0000(x8)-2222(x8)--------------------| x2
A|-----------------------------2222(x4)-4444(x4)--| x2
D|------------------------------------------------| x2
G|------------------------------------------------| x2


Then same notes but slowed down.

D|--4-4--4-44-4--4-4-0-0--0-00-0--0-0-2-2--2-22-2--2-2--------------------|
A|-----------------------------------------------------2-2--2-2-4-4--4-4--|
D|------------------------------------------------------------------------|
G|------------------------------------------------------------------------|


The back to the verse but only play it once

D|--4444(x8)-0000(x8)-2222(x8)--------------------|
A|-----------------------------2222(x4)-4444(x4)--|
D|------------------------------------------------|
G|------------------------------------------------|


D|--------------------------22222222222222224444444444444444--| x2
A|--4-4-4-4-4---2-2-2-2-2-------------------------------------| x2
D|------------------------------------------------------------| x2
G|------------------------------------------------------------| x2


D|---------------22222222222222224444444444444444--|
A|--4-4|---2-2|------------------------------------|
D|-------------------------------------------------|
G|-------------------------------------------------|



Then play the previous part again but with with an open D on the end and let it ring. 

D|---------------222222222222222244444444444444440*--|
A|--4-4|---2-2|--------------------------------------|
D|---------------------------------------------------|
G|---------------------------------------------------|



After the keyboard solo come in with

D|--000000000--00--000--|x4
A|----------------------|x4
D|----------------------|x4
G|----------------------|x4


Then as a bridge (guitar plays it one time first and then the bass comes in)

D|--------8*7*--| x5
A|--5*/8*-------| x5
D|--------------| x5
G|--------------| x5


Then the ending.
Go mad with the open D's until he shouts 1-2-3-4..

Play an open D on every number he shouts but on 4 it changes to

D|--0|--000|--000|--000|-0*000|--000|--000|--00000000|--|
A|------------------------------------------------------|
D|------------------------------------------------------|
G|------------------------------------------------------|


The End

Enjoy.

If theres any mistakes or anything you need help with contact me on lukefogg22@hotmail.co.uk

Thanks.

            
            
Suggest correction
Creating personal tab
Creating personal tab
You can edit any tab online and save it as your Personal.

You can edit, replace or remove any tab part or add personal notes – all changes will be seen only by you.

Personal tabs can be accessed anytime from any device, even offline.
Learn more »
Give kudos to tab author, rate the tab!
1 2 3 4 5
comments
print report bad tab
4 comments total. Showing first comments.
0 reply
carrotcake 2,007 Jul 19, 2007 08:52 AM

why'd you put the strings upside down, that's not how you're supposed to read tabs

0 reply
LukeFogg22 31 Jul 20, 2007 01:03 PM

My apologies
first time tabbing anything and i forgot that thats the way round you do it

you can read it ok though right?

0 reply
Fuzzycows5157 61 Jul 31, 2007 09:43 PM

during the "little android man" part the last two notes are:
G--------------------|
D--------------------|
A-5-5--5-5-4-4--4-4--|
D--------------------|

you can hear it go high low and not low high, other than that it's perfect

guest
You may want to rate the tab now too:
select rating
Wanna post a correction for this tab? Suggest correction