Oops, an error
Loading. Please wait.

Rotting Horse tab

2,620 views 3 this week
2 commentsread comments
1 2 3 4 5
x 7
add to favorites
×
Save as Personal and add changes to this tab that will be seen only by you. Learn more ›
×
You can save this tab as Personal to edit and correct it or add notes. All changes will be seen only by you. Learn more »
launch autoscroll
font size
0
reset
how to read this tab
guitar tuner
edit
Autoscroll
slow
fast
+/-
esc
set tempo
stop
d------------------------------------------------|
a------------------------------------------------|
f------------------------------------------------|
c-----3---0------3---0---------------------------|
g---0---0------0---0-----------------------------|
C-0----------0-----------------------------------|


d------------------------------------------------|
a------------------------------------------------|
f-----2-----2-----2-----2------------0-----------|
c--------------------------------------2---------|
g-0-3---0-3---0-3---0-3------0-3-0-2-----2-------|
C--------------------------2---------------------|


d------------------------------------------------|
a------------------------------------------------|
f-----------0------------------------------------|
c-------------2--------0-----0-------------------|
g---0-3-0-2-----2----0-----0-------0-----0---0---|
C-2----------------5-----5-----5-5---5-3---2---0-|


This riff is repeated for the whole instrumental.

            
            
Suggest correction
Creating personal tab
Creating personal tab
You can edit any tab online and save it as your Personal.

You can edit, replace or remove any tab part or add personal notes – all changes will be seen only by you.

Personal tabs can be accessed anytime from any device, even offline.
Learn more »
comments
print report bad tab
2 comments total.
+1 reply
seargentkitty 145 May 29, 2007 06:37 PM

that last bit should be
otherwise it seems perfect to me

d------------------------------------------------|
a------------------------------------------------|
f-----------0------------------------------------|
c-------------2--------0-----0-------------------|
g---0-3-0-2-----2----1-----1-------1---0------0--|
C-2----------------5-----5-----5-5---5---3--2----|

0 reply
BMTH<3 10 Jul 19, 2011 09:00 PM

Hey Bro, That sounds pretty damn good to me. c: Thank you for the one & only HORSE the Band tab.
Oh, Dude, Seargentkitty: I tried your correction, it sounds great too. :D Just the only problem i had with it is that my little baby hand couldnt make its way from 5 to 1; Pinky on 5 index on 1. To big of a gap for me i so posse.. Thank you.

guest
You may want to rate the tab now too:
select rating
Wanna post a correction for this tab? Suggest correction