Oops, an error
Loading. Please wait.

Friends Of Friends Tab

2,258 views 1 this week
2 commentsread comments
1 2 3 4 5
excellent!
x 3
add to favorites
launch autoscroll
font size
0
reset
how to read this tab
guitar tuner
Autoscroll
slow
fast
+/-
esc
set tempo
stop
Help us to improve Ultimate-Guitar.com Take our survey!
×
Contributor
Difficulty
intermediate
This is a great song by a great band, also this is my first tab so it might be a little
shaky at parts but it sounds accurate to me.
h-hammer-on
p-pull-off
*-optional bass note
Time Signature 4/4

**************************************************INTRO****************************

e |55------|55------|77------|77------|
B |55------|55------|77------|77------|
G |66------|66------|77------|77------|
D |77------|77------|99------|99------|
A |77------|77------|99------|99------|
E |55--*5--|55--*5--|77--*7--|77--*7--|


************************************************VERSES*****************************

e|55--------|55--------|77--------|77--------|
B|55--------|55--------|77-10-7---|77-10-7---|
G|66----6---|66----6---|77-----9-6|77-----9-6|
D|77-6h7-7p6|77-6h7-7p6|99--------|99--------|
A|77--------|77--------|99--------|99--------|
E|55--------|55--------|77--------|77--------|


**********************************************PRE-CHORUS*****************************

e|44444444|77777777|22222222|5-------|
B|55555555|88888888|33333333|6-------|
G|66666666|99999999|44444444|7-------|
D|66666666|99999999|44444444|7-------|
B|44444444|77777777|22222222|5-------|
E|--------|--------|--------|--------|

**************************************************CHORUS***************************
Time Signature
6/4

e|4-4-22222222|4-4-22222222|4-4-5-5555-|
B|5-5-33333333|5-5-33333333|5-5-5-7777-|
G|6-6-44444444|6-6-44444444|6-6-6-7777-|
D|6-6-44444444|6-6-44444444|6-6-7-7777-|
A|4-4-22222222|4-4-22222222|4-4-7-5555-|
E|------------|------------|----5------|


*******************************************Keyboard Part***********************

Alright, there is a keyboard/feedback part in here that you can kinda just improvise
through, I'll tab out the first part for you though.

e|555-----|555-----|777-----|777-----|
B|555-----|555-----|777-----|777-----|
G|666-----|666-----|999-----|999-----|
D|777-----|777-----|999-----|999-----|
A|777-----|777-----|999-----|999-----|
E|555-----|555-----|777-----|777-----|

*********************************************END PRODUCT/LYRICS*********

Intro x2
Verse x2
Pre-Chorus
Chorus
Verse x3
Pre-Chorus
Chorus
Keyboard Part x8
Pre-Chorus
Chorus

I don't wanna go
Down the 14th street
In old New York
I'd rather be home
Why's it all the same
Crowded flying planes
New Amsterdam
And tall, rich men

March has come
and your girlfriend is coming home

You've got friends that are new friends
And friends that are old friends
And friends looking out

Got a cheap dress on
With a wrinkled sleeve
My hat and gloves
My money please
Oh well March is cold
And the burnt black hair
I'd rather be home
My president's there

When I call
You don't pick up anymore

But I've got friends that are new friends
And friends that are old friends
And friends looking out

When I call
You don't pick up anymore

But I've got friends that are new friends
And friends that are old friends
And friends looking out
comments
We did not receive enough feedback on this tab! Please rate:
print report bad tab
1 2 3 4 5
2 comments total.
0 reply
enantiogramme 20 wrote on February 14 2012, 07:38 pm

So thrilled to see a Hospitality tab! Thanks!

0 reply
WhiskeeWarm 70 wrote on May 1 2014, 04:17 pm

Thanks for putting this up! There need to be more Hospitality tabs.
I had a couple of possible corrections for this tab.
In the verse, I think the run after Bm should be:
e|77---------|
B|77-10------|
G|77----9-7-6|
D|99---------|
A|99---------|
E|77---------|

And in the chorus, I'm pretty sure there's an E in there:
e|4-7-22222222|4-7-22222222|4-7-5-5555-|
B|5-9-33333333|5-9-33333333|5-9-5-7777-|
G|6-9-44444444|6-9-44444444|6-9-6-7777-|
D|6-9-44444444|6-9-44444444|6-9-7-7777-|
A|4-7-22222222|4-7-22222222|4-7-7-5555-|
E|------------|------------|----5------|

And maybe play it like this:
e|9--7-77777777|9--7-77777777|9--7-5-5555-|
B|9--9-77777777|9--9-77777777|9--9-5-7777-|
G|9--9-77777777|9--9-77777777|9--9-6-7777-|
D|11-9-99999999|11-9-99999999|11-9-7-7777-|
A|11-7-99999999|11-7-99999999|11-7-7-5555-|
E|9----77777777|9----77777777|9----5------|

I won't post a v2 because you worked out far more than I did, thanks!

I want to post or [tab]
guest
You may want to rate the tab now too:
select rating
Please do not post tabs as comments. Select "correction" instead!