Oops, an error
Loading. Please wait.

Dont Want Her To Stay tab

906 views 1 this week
no commentswrite comment
1 2 3 4 5
2 more votes to show rating
add to favorites
×
Save as Personal and add changes to this tab that will be seen only by you. Learn more ›
×
You can save this tab as Personal to edit and correct it or add notes. All changes will be seen only by you. Learn more »
launch autoscroll
font size
0
reset
how to read this tab
guitar tuner
edit
Autoscroll
slow
fast
+/-
esc
set tempo
stop
Author
-------------------------------------------------------------------------------
			     Don't Want her to Stay - Hot Action Cop
-------------------------------------------------------------------------------
Tabbed by: Danelg
Email:Danne.Richter@gmail.com

Tuning:Standard (EADGBe)

Intro
e|--12-----------------------------------------------------------------------|
B|--12--Repeat---------------------------------------------------------------|
G|--12-----------------------------------------------------------------------|
D|---------------------------------------------------------------------------|
A|---------------------------------------------------------------------------|
E|---------------------------------------------------------------------------|

e|------------------------------|
B|------------------------------|
G|--------------6-6-6-6-6-6--4--|
D|-2--2-2-2--4--6-6-6-6-6-6--4--|  x4
A|-2--2-2-2--4--4-4-4-4-4-4--2--|
E|-0--0-0-0--2------------------|


Number of strokes isn't correct, they're there just to get a hang of it.
play mostly on the higher strings, G B and e strings.
Vers 1
    E		     C#m	     B		    A5  F#5
e|--7--7-7-7-7-7-----4--4-4-4-4-4----2--2-2-2-2-2-----------|
B|--9--9-9-9-9-9h10--5--5-5-5-5-5-7--4--4-4-4-4-4-----------|
G|--9--9-9-9-9-9-----6--6-6-6-6-6----4--4-4-4-4-4---2----4--|
D|--9--9-9-9-9-9-----6--6-6-6-6-6----4--4-4-4-4-4---2----4--| x2
A|--7--7-7-7-7-7-----4--4-4-4-4-4----2--2-2-2-2-2---0----2--|
E|----------------------------------------------------------|


Pre-Chorus
    A2	 B2
e|-------------------------------------------------------------------------------|
B|--0----------------------------------------------------------------------------|
G|--2-----4----------------------------------------------------------------------|
D|--2-----4----------------------------------------------------------------------|
A|--0-----2----------------------------------------------------------------------|
E|-------------------------------------------------------------------------------|

Chorus
   A2	  B2
e|-------------------------------------------------------------------------------|
B|--0----------------------------------------------------------------------------|
G|--2-----4----------------------------------------------------------------------|
D|--2-----4----------------------------------------------------------------------|
A|--0-----2----------------------------------------------------------------------|
E|-------------------------------------------------------------------------------|


Vers 2: same as Vers 1 but wtih second guitar playing around, don't know what :D
    E		     C#m	     B		    E5  F#5
e|--7--7-7-7-7-7-----4--4-4-4-4-4----2--2-2-2-2-2-----------|
B|--9--9-9-9-9-9h10--5--5-5-5-5-5-7--4--4-4-4-4-4-----------|
G|--9--9-9-9-9-9-----6--6-6-6-6-6----4--4-4-4-4-4---2----4--|
D|--9--9-9-9-9-9-----6--6-6-6-6-6----4--4-4-4-4-4---2----4--| x2
A|--7--7-7-7-7-7-----4--4-4-4-4-4----2--2-2-2-2-2---0----2--|
E|----------------------------------------------------------|

Pre-Chorus
    A2	 B2
e|------------|
B|--0---------|
G|--2-----4---|
D|--2-----4---| PAuse
A|--0-----2---|
E|------------|

Chorus
   A2	  B2
e|-------------|
B|--0----------|
G|--2-----4----|
D|--2-----4----| x3
A|--0-----2----|
E|-------------|

Post-Chours
e|------------------------------|
B|------------------------------|
G|--------------6-6-6-6-6-6--4--|
D|-2--2-2-2--4--6-6-6-6-6-6--4--|  x4
A|-2--2-2-2--4--4-4-4-4-4-4--2--|
E|-0--0-0-0--2------------------|

Bridge
e|-------------|
B|--0----------|
G|--2-----4----|
D|--2-----4----| x4
A|--0-----2----|
E|-------------|

Vers3
    E		     C#m	     B		    E5  F#5
e|--7--7-7-7-7-7-----4--4-4-4-4-4----2--2-2-2-2-2-----------|
B|--9--9-9-9-9-9h10--5--5-5-5-5-5-7--4--4-4-4-4-4-----------|
G|--9--9-9-9-9-9-----6--6-6-6-6-6----4--4-4-4-4-4---2----4--|
D|--9--9-9-9-9-9-----6--6-6-6-6-6----4--4-4-4-4-4---2----4--| x1 a bit slower at the end
A|--7--7-7-7-7-7-----4--4-4-4-4-4----2--2-2-2-2-2---0----2--|
E|----------------------------------------------------------|

Chorus
   A2	  B2
e|-------------|
B|--0----------|
G|--2-----4----|
D|--2-----4----| x4
A|--0-----2----|
E|-------------|

Outro (same as intro and post-chorus)
e|------------------------------|
B|------------------------------|
G|--------------6-6-6-6-6-6--4--|
D|-2--2-2-2--4--6-6-6-6-6-6--4--|  x4
A|-2--2-2-2--4--4-4-4-4-4-4--2--|
E|-0--0-0-0--2------------------|

************************************

| /   slide up
| \   slide down
| h   hammer-on
| p   pull-off
| ~   vibrato
| +   harmonic
| x   Mute note
| b   Bend
| pb  Pre-bend
| br  Bend release
| pbr Pre-bend release
| brb Bend release bend

************************************

            
            
Suggest correction
Creating personal tab
Creating personal tab
You can edit any tab online and save it as your Personal.

You can edit, replace or remove any tab part or add personal notes – all changes will be seen only by you.

Personal tabs can be accessed anytime from any device, even offline.
Learn more »
Give kudos to tab author, rate the tab!
1 2 3 4 5
comments
print report bad tab
guest
You may want to rate the tab now too:
select rating
Wanna post a correction for this tab? Suggest correction