Oops, an error
Loading. Please wait.

Doom Boom bass

405 views 6 this week
no commentswrite comment
1 2 3 4 5
3 more votes to show rating
add to favorites
×
Save as Personal and add changes to this tab that will be seen only by you. Learn more ›
×
You can save this tab as Personal to edit and correct it or add notes. All changes will be seen only by you. Learn more »
launch autoscroll
font size
0
reset
guitar tuner
edit
Autoscroll
slow
fast
+/-
esc
set tempo
stop
Author
Difficulty
Hey! This is my bass tab to the song "Doom Boom" by Hot Action Cop.
This song has many different parts, that's why it makes so much fun to learn and play this song.

Please rate my tab and have fun with it. ;)

Intro Riff 1
G|----------------|----------------|
D|----------------|----------------|
A|----------------|----------------| 2x
E|2--2--2--2--2b--|2--2--2--2--2---|
B|-1--1--1--1---1-|-1--1--1--1--1\5|
  SE SE SE SE E E  SE SE SE SE SE.

Intro Riff 2
G|----------------|----------------|
D|----------------|----------------|
A|----------------|----------------| 2x
E|2--2--2--2--2~~~|2--2--2--2--2---|
B|-1--1--1--1-----|-1--1--1--1--1\5|
  SE SE SE SE Q    SE SE SE SE SE.

Pre-Verse 1
G|----------------|----------------|----------------|----------------|
D|----------------|----------------|----------------|----------------|
A|----------------|----------------|----------------|----------------|
E|----------------|----------------|----------------|----------------|
B|-----------33--3|3----------33--3|3----------33--3|3-----------15/~|
  H       E. SSE S E H       SSE  S E H       SSE  S E H       E Q

Verse 1
G|----------------|----------------|
D|----------------|----------------|
A|----------------|----------------| 8x
E|----X6--X5--X6--|----X6--X5--X3--|
B|3~~~------------|3~~~------------|
  Q   SE. SE. SE.  Q   SE. SE. SE.

Pre-Chorus
G|----------------|----------------|----------------|----------------|
D|----------------|----------------|----------------|----------------|
A|----------------|----------------|----------------|----------------|
E|5~~~~~~~~~~~~~~~|~~~~~~~~~~~~~~~~|~~~~~~~~~~~~~~~~|3~~~~~~~6~~~6-6-|
B|----------------|----------------|----------------|----------------|
  F                F                F                H       Q   E E

G|----------------|----------------|----------------|----------------|
D|----------------|----------------|----------------|----------------|
A|----------------|----------------|----------------|----------------|
E|5~~~~~6~~~~~3-3-|5~~~~~6~~~~~3-33|5~~~~~6~~~~~3-3-|5-5-5----5~~----|
B|----------------|----------------|----------------|------555-------|
  Q.    Q.    E E  Q.    Q.    E SS Q.    Q.    E E  E E E SSSE. Q

Chorus
G|----------------|----------------|----------------|----------------|
D|----------------|----------------|----------------|----------------|
A|----------------|----------------|----------------|----------------| 2x
E|------5-5-6-6-6-|------5-5-6-6-6-|------5-5-6-6-6-|3-3-3-3-5-5-5-5-|
B|3-3-3-----------|3-3-3-----------|3-3-3-----------|----------------|
  E E E E E E E E  E E E E E E E E  E E E E E E E E  E E E E E E E E

Pre-Verse 2
G|----------------|----------------|----------------|----------------|
D|----------------|----------------|----------------|----------------|
A|----------------|----------------|----------------|----------------|
E|----6--55--666--|----6--55--333--|----6--55--666--|----6--55--333--|
B|3~~~------------|3~~~------------|3~~~------------|3~~~------------|
  Q   E. SE. SSE.  Q   E. SE. SSE.  Q   E. SE. SSE.  Q   E. SE. SSE.

G|----------------|
D|----------------|
A|----------------|
E|----------------|
B|3-----------15/~|
  E H       E Q

Verse 2
G|----------------|
D|----------------|
A|----------------| then: Verse 1, but only 7 times
E|----X6--X5--X3--|
B|3~~~------------|
  Q   SE. SE. SE.  

Pre-Chorus
Chorus 
 
 Breakdown: Intro Riff 1 (2x), Intro Riff 2 (1x), then: 
/Slide Part
|G|----------------|-------------------|
|D|----------------|-------------------|
|A|----------------|-------------------|
|E|2--3--4--5--6b--|7--8--9--10--11b---|
|B|-1--2--3--4---5-|-6--7--8---9----10-|
|  SE SE SE SE E E  SE SE SE S E E  E
|
|Sixteenth note - Part 
|G|----------------|----------------|----------------|----------------|---|
|D|----------------|----------------|----------------|----------------|---|
|A|----------------|----------------|----------------|----------------|---|
|E|----------------|----------------|----------------|----------------|---|
|B|11111111111111--|11111111111111--|11111111111111--|1111111111111111|1--|
|  SSSSSSSSSSSSSSE  SSSSSSSSSSSSSSE  SSSSSSSSSSSSSSE  SSSSSSSSSSSSSSSS S
\

Bridge (Bass begins after 8 bars pause)
G|----------------|----------------|----------------|----------------|
D|----------------|----------------|----------------|----------------|
A|----------------|----------------|----------------|----------------|
E|5~~~~~~~~~~~~5h6|3~~~~~~~~~~~~3h5|----------------|4~~~~~~~~~~~~~~~|
B|----------------|----------------|5~~~~~~~~~~~~5h6|----------------|
  H       Q   SSE  H       Q   SSE  H       Q   SSE  F

G|-----------------|-----------------|-----------------|----------------|
D|-----------------|-----------------|-----------------|----------------|
A|-----------------|-----------------|-----------------|----------------|
E|5-55555-55555-5h6|3-33333-33333-3h5|-----------------|4-44444-44444-44|
B|-----------------|-----------------|5-55555-55555-5h6|----------------|
  E SSSSE SSSSE SS  E SSSSE SSSSE SS  E SSSSE SSSSE SS  E SSSSE SSSSE SS

Pre-Chorus Variation                                 1. & 2.
G|----------------|----------------|----------------|----------------|
D|----------------|----------------|----------------|----------------|
A|----------------|----------------|----------------|----------------| 3x
E|5~~~~~6~~~~~3-3-|5~~~~~6~~~~~3-33|5~~~~~6~~~~~3-3-|5~~~6~~~~~~~~~~~|
B|----------------|----------------|----------------|----------------|
  Q.    Q.    E E  Q.    Q.    E SS Q.    Q.    E E  Q   H.

                                                     3.
                                                    |----------------|
                                                    |----------------|
                                                    |----------------|
                                                    |5---------------|
                                                    |----------------|
                                                     E E H.

Chorus (4x)

Outro-Breakdown: Intro Riff 1 (2x), Intro Riff 2 (1x) and
Sixteenth note - Part
G|----------------|----------------|
D|----------------|----------------|
A|----------------|----------------|
E|----------------|----------------|
B|1111111111111111|1111111111111\~~|
  SSSSSSSSSSSSSSSS SSSSSSSSSSSSQ

F = Full note
H = Half note
Q = Quarter note
E = Eighth note
S = Sixteenth note
. = makes the note a half longer
\ = Slide up
/ = Slide down
h = Hammer-on
p = Pull-off
b = Bending
X = Mute note

            
            
Suggest correction
Creating personal tab
Creating personal tab
You can edit any tab online and save it as your Personal.

You can edit, replace or remove any tab part or add personal notes – all changes will be seen only by you.

Personal tabs can be accessed anytime from any device, even offline.
Learn more »
Give kudos to tab author, rate the tab!
1 2 3 4 5
comments
print report bad tab
guest
You may want to rate the tab now too:
select rating
Wanna post a correction for this tab? Suggest correction