Oops, an error
Loading. Please wait.

Fever For The Flava tab

version 1
version 1

Whole song

Interactive

44,593 views 30 this week
24 commentsread comments
1 2 3 4 5
x 25
add to favorites
×
Save as Personal and add changes to this tab that will be seen only by you. Learn more ›
×
You can save this tab as Personal to edit and correct it or add notes. All changes will be seen only by you. Learn more »
launch autoscroll
font size
0
reset
how to read this tab
guitar tuner
edit
Autoscroll
slow
fast
+/-
esc
set tempo
stop
Standard Tuning

Intro - palm mute
|------------------------------------
|------------------------------------
|------------------------------------
|------7-6---6-9-9------7-6---6-4-4-- 
|--7-7-----7--------7-7-----7--------
|------------------------------------

Verse
|-------------------------------------
|---------------------x-x-x-x-x-x-x-x-
|-9-9--8--------------x-x-x-x-x-x-x-x-
|-9-9--8--6--6--4-4---x-x-x-x-x-x-x-x-
|-7-7--6--6--6--4-4---x-x-x-x-x-x-x-x-
|---------4--4--2-2-------------------

Chorus
|-------------------------------------------------------
|-------------------------------------------------------
|---9---8-----------------------------------------------
|---9---8------------------7----------------9-----------
|---7---6------------------7----------------9-----------
|--------------------------5----------------7-----------
 Oh hey hey hey hey heeey, oh pretty pretty shy woh woh

last time round in the chorus, play the A5 at the end

then play the verse without the mutes at the end followed by the intro riff and
the chorus again and again the verse

then this as a bridge thing
|----------------------
|----------------------
|----------------------
|-2-2--4/5-4/5-4/5-4/5-
|-2-2--4/5-4/5-4/5-4/5-
|-0-0--2/3-2/3-2/3-2/3-

lead guitar plays over the top with an effect
|--------------------------
|--------------------------
|-9---11---12---14---12----
|--------------------------
|--------------------------
|--------------------------
 tremelo pick

intro played again, choping (mutes) underneath from lead guitar
followed by verse riff and then chorus
verse again and then the bridge ending......

|---------------------------
|---------------------------
|---------------------------
|-2-2--4/5-4/5-4/5-4/5--2-2-
|-2-2--4/5-4/5-4/5-4/5--2-2-
|-0-0--2/3-2/3-2/3-2/3--0-0-

that's the whole song, enjoy.
any questions? andrewbiles@hotmail.com
Suggest correction
Creating personal tab
Creating personal tab
You can edit any tab online and save it as your Personal.

You can edit, replace or remove any tab part or add personal notes – all changes will be seen only by you.

Personal tabs can be accessed anytime from any device, even offline.
Learn more »
comments
print report bad tab
24 comments total. Showing first comments.
+1 reply
BlackHawkA4 10 Jul 14, 2003 08:00 PM

To me it sounds like it should go like this

|------------------------------------
|------------------------------------
|------------------------------------
|------6h7-6----9-9------6h7-6---4-4-
|--7-7--------------7-7-----7--------
|------------------------------------

0 reply
nasty_santa409 100 Feb 19, 2004 07:00 PM

^^
yeah, other than that, just fine.

0 reply
ror 172 Dec 16, 2004 07:00 PM

lol list the lyrics they are so funi awsome tab

guest
You may want to rate the tab now too:
select rating
Wanna post a correction for this tab? Suggest correction