Oops, an error
Loading. Please wait.

Alright Tab

1,770 views 1 this week
no commentswrite comment
1 2 3 4 5
please rate
add to favorites
launch autoscroll
font size
0
reset
how to read this tab
guitar tuner
Tab Pro tools
  • play this tab
  • loop segment
  • change instrument
  • show fretboard
  • metronome
×
Best way to learn
"Alright"
Autoscroll
slow
fast
+/-
esc
set tempo
stop
Contributor
Artist: Hot Chelle Rae
Song: Alright
Album: Lovesick Electric
Tabbed by: gustavoaraujo999@hotmail.com

[Verse 1]
e|---------------------------------------|
B|---------------------------------------|
G|-99999999-88888888-66666666-44444444---|
D|-99999999-99999999-66666666-44444444---|
A|-77777777-66666666-44444444-22222222---|
E|---------------------------------------|

e|-------------------------------------| e|-----------------|
B|-5-4---5-4---5-4---5-4---5-4---------| B|-5-4-----5-4-7~--|
G|----4-----4-----4-----4-----4--------| G|-----4~----------|
D|-------------------------------[x2]--| D|-----------------|
A|-------------------------------------| A|-----------------|
E|-------------------------------------| E|-----------------|


[Chorus]
e|-00000000--00000000--------------00000-------|
B|-00000000--22222222--------------22222-------|
G|-11111111--22222222--66666-44444-22222-------|
D|-22222222--22222222--66666-44444-22222-------|
A|-22222222--00000000--44444-22222-00000-------|
E|-00000000------------------------------------|


[Verse 2]
G|-------------------------------------------------------------|
D|-------------------------------------------------------------|
A|-7-7-7-7-7-7-7-7-6-6-6-6-6-6-6-6-4-4-4-4-4-4-4-6-6-6-6-x-x---|
E|-------------------------------------------------------------|

e|-----------------|
B|-5-4-----5-4-7~--|
G|-----4~----------|
D|-----------------|
A|-----------------|
E|-----------------|


[Chorus 2]
e|-00000000--00000000--------------00000--------|
B|-00000000--22222222--------------22222-101010-|
G|-11111111--22222222--66666-44444-22222-9-9-9--|
D|-22222222--22222222--66666-44444-22222-7-7-7--|
A|-22222222--00000000--44444-22222-00000--------|
E|-00000000-------------------------------------|

e|-00000000--00000000--------------00000000-|-------------------|
B|-00000000--22222222--------------22222222-|-------------------|
G|-11111111--22222222--66666-44444-22222222-|-66666-44444-22222-|
D|-22222222--22222222--66666-44444-22222222-|-66666-44444-22222-|
A|-22222222--00000000--44444-22222-00000000-|-44444-22222-00000-|
E|-00000000---------------------------------|-------------------|


[Bridge]
e|----------------------------------------------------|
B|----------------------------------------------------|
G|------------------6-6-xxx-6-6-xxx-6-6-xxx-6-6-------|
D|-3~-5-6-3~-5-6----6-6-xxx-6-6-xxx-6-6-xxx-6-6--[x2]-|
A|-3~-5-6-3~-5-6----4-4-xxx-4-4-xxx-4-4-xxx-4-4-------|
E|-1~-3-4-1~-3-4--------------------------------3/----|
 

[Solo]
e|------------------------------------|
B|----------11^^-11-----------13^-13--|
G|-------11---------------13----------|
D|-11-13------------11-13-------------|
A|------------------------------------|
E|------------------------------------|

e|-11-------------11-----------------------------------------|
B|----13-11----11----13-11-13-11-13--11-13--11-14--11-13-----|
G|----------13-----------------------------------------------|
D|-----------------------------------------------------------|
A|-----------------------------------------------------------|
E|-----------------------------------------------------------|

e|----------------------------------------------------------------|-----|
B|-11-12-------------12-------------------------------------------|-----|
G|-------13-11----11-----13-11-13-13---14-14-13-11-13-11----------|-4~--|
D|-------------14----------------------------------------14-13-14-|-4~2-|
A|----------------------------------------------------------------|-2~2-|
E|----------------------------------------------------------------|---0-|

[Chorus 2]
comments
We did not receive enough feedback on this tab! Please rate:
print report bad tab
1 2 3 4 5
I want to post or [tab]
guest
You may want to rate the tab now too:
select rating
Please do not post tabs as comments. Select "correction" instead!