Oops, an error
Loading. Please wait.

Tonight Tonight bass

version 3
version 3

Whole song

Interactive

1,212 views 1 this week
no commentswrite comment
1 2 3 4 5
2 more votes to show rating
add to favorites
×
Save as Personal and add changes to this tab that will be seen only by you. Learn more ›
×
You can save this tab as Personal to edit and correct it or add notes. All changes will be seen only by you. Learn more »
launch autoscroll
font size
0
reset
guitar tuner
edit
Autoscroll
slow
fast
+/-
esc
set tempo
stop
Author
Difficulty
-------------------------------------------------------------------------------
                            Tonight Tonight - Hot Chelle Rae
-------------------------------------------------------------------------------

Tabbed By : 13hurricane

Tuning:  Standard

Ok, so right now there are two bass tabs for this song.  Both agree that the first part 
of the main (and really, only) riff goes like this:

G|-------------------------------------|
D|-------------------------------------|
A|-------------------------------------|
E|0---4--5---------------1---5--6------|
   First One                            Second One

Agreeable that that is how it goes.  I use F rather than E.  The second part of the riff 
is where the trouble begins.  One has you start higher and go down, like this:
G|----------|
D|----------|
A|3---0-----|
E|-------1--|

The other has you start a half-step lower and go higher, like this:
G|-----------|
D|-----------|
A|----6--7---|
E|-7---------|

The problem is, neither of these are right.  The good thing, neither is wrong.  During 
the chorus, when heavy effects are used, the second version is how it goes.  But during 
the verse, it switches back and forth.  So, it really looks like this:

Verse
G|-------------------------------------------------|
D|-------------------------------------------------|
A|----------3------------------------------6-7-----|
E|-1---4-5-------0-1------1----4-5----7------------|

Chorus
G|------------------------|
D|------------------------|
A|--------------6--7------|
E|-1---4-5---7------------|

Not too hard, just listen to the song and you should get it.
Suggest correction
Creating personal tab
Creating personal tab
You can edit any tab online and save it as your Personal.

You can edit, replace or remove any tab part or add personal notes – all changes will be seen only by you.

Personal tabs can be accessed anytime from any device, even offline.
Learn more »
Give kudos to tab author, rate the tab!
1 2 3 4 5
comments
print report bad tab
guest
You may want to rate the tab now too:
select rating
Wanna post a correction for this tab? Suggest correction