Oops, an error
Loading. Please wait.

Night And Day bass

1,381 views 6 this week
no commentswrite comment
1 2 3 4 5
3 more votes to show rating
add to favorites
×
Save as Personal and add changes to this tab that will be seen only by you. Learn more ›
×
You can save this tab as Personal to edit and correct it or add notes. All changes will be seen only by you. Learn more »
launch autoscroll
font size
0
reset
guitar tuner
edit
Autoscroll
slow
fast
+/-
esc
set tempo
stop
Author
Difficulty
----------------------------------------------------------------------------
                            Night and Day - Hot Chip
----------------------------------------------------------------------------
Tabbed by: Paul Anders
E-mail: madpanderfish@yahoo.co.uk

Tuning: Standard

Chord: A5
G|-------------------------------------------------------|
D|-------------------------------------------------------|  X2
A|-0---12-12----12---13-13---12--13-13--10--8------------|
E|----------------------------------------------10--8----|

Chord: E5
G|-------------------------------------------------------|
D|-------------------------------------------------------|  X1
A|-------------------------------------------------------|
E|-0---12-12----12---13-13---12--13--10--8--7--0---------|

Chord: A5
G|-------------------------------------------------------|
D|-------------------------------------------------------|  X1
A|-0---12-12----12---13-13---12--13--10--8---------------|
E|-------------------------------------------------------|

This is roughly how the riff goes, it is repeated throughout most of the
track with only a few breaks. Hopefully if you play around with these
notes and listen to the song you should get the internation between the
notes right, something it is very hard to get exacty on a tab like this.
Hopefully this will help whoever is reading this learn this riff.

Paul.

P.S for best results transfer this into keyboard notation and then play
 this through a vintage moog voyager. 

| /  slide up
| \  slide down
| h  hammer-on
| p  pull-off
| ~  vibrato
| +  harmonic
| x  Mute note
============================================================================
Suggest correction
Creating personal tab
Creating personal tab
You can edit any tab online and save it as your Personal.

You can edit, replace or remove any tab part or add personal notes – all changes will be seen only by you.

Personal tabs can be accessed anytime from any device, even offline.
Learn more »
Give kudos to tab author, rate the tab!
1 2 3 4 5
comments
print report bad tab
guest
You may want to rate the tab now too:
select rating
Wanna post a correction for this tab? Suggest correction