Oops, an error
Loading. Please wait.

Fatefully tab

1,962 views 3 this week
2 commentsread comments
1 2 3 4 5
x 3
add to favorites
×
Save as Personal and add changes to this tab that will be seen only by you. Learn more ›
×
You can save this tab as Personal to edit and correct it or add notes. All changes will be seen only by you. Learn more »
launch autoscroll
font size
0
reset
how to read this tab
guitar tuner
edit
Autoscroll
slow
fast
+/-
esc
set tempo
stop
Hot Cross - Fatefully
half step down

eb|--------0~-------|----------------3-3-------------------------------3-3-|-023575320-|-02320---|
Bb|--------0~---0~--|----------------3-3-------------------------------3-3-|-----------|------30-|
Gb|--------0~---0~--|------------------------------------------------------|-----------|---------|
Db|-------------0~--|----------2p0--------------2p0--------------2p0-------|-----------|---------|
Ab|-----------------|---2p03p0----3p0----2p03p0----3p0----2p03p0----3p0----|-----------|---------|
Eb|-0--0----------/-|-0-----------------0-------------330------------------|-----------|---------|


eb|----------------------------------------|---------|---------|
Bb|----------------------------------------|-3-5-8-5-|-3-5-0-3-|
Gb|----------------------------------------|-2-4-7-4-|-2-4-0-2-|
Db|----------045---------04575---------045-|---------|---------|
Ab|--2p03p0-------2p03p0--------2p03p0-----|---------|---------|
Eb|-0------------0-------------0-----------|---------|---------|

                                            1st       2nd
eb|----------------3-3-------------------------------3-3-|-023575320-|-02320---|-0--19+-22+-|
Bb|----------------3-3-------------------------------3-3-|-----------|------30-|-0----------|
Gb|------------------------------------------------------|-----------|---------|-0----------|
Db|----------2p0--------------2p0--------------2p0-------|-----------|---------|------------|
Ab|---2p03p0----3p0----2p03p0----3p0----2p03p0----3p0----|-----------|---------|------------|
Eb|-0-----------------0-------------330------------------|-----------|---------|------------|
							  1st         2nd

eb|----------------3p02-----------------------|----|-------0--|
Bb|--------------------0-3p0-5p3----------3p0-|--3-|--0---3-0-|
Gb|-----------4p0----------------4p02p0-------|--0-|---2/4----|
Db|--------2p0----2-----0--------------2p0----|--x-|----------|
Ab|---0h2h3---------------------0-------------|-33-|-3--------|
Eb|-00----------------------------------------|----|----------|
                                               1st  3rd
					       2nd
                                               4th

eb|---------------333333331010101010101010------------|
Bb|---------------55555555-8-8-8-8-8-8-8-8--3-----3---|
Gb|-----------4p0--------------------------4-4~--4-4~-|
Db|--------2p0----------------------------------------|
Ab|---0h2h3-------------------------------0-----3-----|
Eb|-00------------------------------------------------|
   5th

eb|---------0-----------------------0---------|---------|---------0-------------------0---------|
Bb|--------3-3---------------------3-3--------|---------|--------3-3-----------------3-3--------|
Gb|--2p0--4----2p0---4p02p0--2p0--4-----------|---------|--2p0--4----2p0--0----2p0--4-----------|
Db|-----2---------2--------5----2-----------0-|-------0-|-----2---------2---2-----2-----------0-|
Ab|-3----3----3----30-------3----3----0---2---|-0---2---|-3----3----3----3----3----3----0---2---|
Eb|-------------------------------------3-----|---3-----|---------------------------------3-----|
                                               2nd       3rd and 4th
eb|----------------------------------|
Bb|-333333333333333311111111---------|
Gb|-000000000000000022222222---------|
Db|-xxxxxxxxxxxxxxxx2222222222222222-|
Ab|-33333333333333330000000022222222-|
Eb|-------------------------00000000-|

eb|---------------------------0-|
Bb|---------------------------0-|
Gb|---------------------------0-|
Db|-2224442224442244224420------|
Ab|-333333333333333300000022----|
Eb|-----------------------000---|

eb|-0~--------------0~-------------7~-------------------------------------------|-0~-(12-7-5-7-10)|
Bb|-0--3~-----------0---3~------------7-5-0-----3p0-7-5-0bb--7-5-0----3p0-7-5-0-|-0~--------------|
Gb|-0~-------4-2-0~-0~-------4-2/up----------2/4-------------------2/4----------|-0~--------------|
Db|-x---------------x-----------------------------------------------------------|-x---------------|
Ab|-3~--------------3~----------------------------------------------------------|-3~--------------|
Eb|-----------------------------------------------------------------------------|-----------------|

            
            
Suggest correction
Creating personal tab
Creating personal tab
You can edit any tab online and save it as your Personal.

You can edit, replace or remove any tab part or add personal notes – all changes will be seen only by you.

Personal tabs can be accessed anytime from any device, even offline.
Learn more »
Give kudos to tab author, rate the tab!
1 2 3 4 5
comments
print report bad tab
2 comments total.
0 reply
mattymuchacho 10 Sep 11, 2008 04:03 PM

have you tried playing after the intro like this?
------------------------------33---
------------------------------33---
-----------------------------------
------------2--------------2------
-----2h3p-0--3-2-----2h3p0--3-----
-0-3------------3-0-3------------ or something to that extent?

0 reply
Zach101 884 Apr 05, 2016 03:40 PM

Good tab!! Any chance you might be able to do Better A Corpse Than a Nun??

guest
You may want to rate the tab now too:
select rating
Wanna post a correction for this tab? Suggest correction