Oops, an error
Loading. Please wait.

Bandages guitar pro

version 1
version 1

Whole song

Interactive

2,037 views 3 this week
3 commentsread comments
1 2 3 4 5
1 last vote to show rating
add to favorites
guitar tuner
Autoscroll
slow
fast
+/-
esc
set tempo
stop
File Format
Filesize
Instruments
.gp5
56 Kb
rhythm_guitars #2, basses, percussions, keyboards
"Bandages"
demo version
Play now

or get full version for Free

×
Get full version now!
Learn and play this song
in Tab Pro
Try for free

or get $10 off Welcome Bonus

Get welcome bonus
Get access to Tab Pro version of “Bandages”!
Tab Pro is a premium guitar tab service, available on PC, Mac, iOS and Android
TRY FOR FREE
Your download will start in 7 seconds
×
Like this song? We have more! Follow us on Facebook for daily tips, lessons and other guitar-related content.
To download “Bandages” Guitar Pro tab click button below
Please note that you must have Guitar Pro software installed on your
computer in order to view this file.
Suggest correction
Give kudos to tab author, rate the tab!
1 2 3 4 5
comments
report bad tab
3 comments total.
0 reply
Pale_Pilgrim 702 Apr 13, 2014 09:37 AM

Great job, thank you for submitting this.

0 reply
Pale_Pilgrim 702 Apr 17, 2014 02:41 PM, edited at 06:43 pm

Here's the bass line written out as short as I could, for anyone interested...

0 reply
Pale_Pilgrim 702 Apr 17, 2014 02:43 PM

Standard tuning
--------------------

Intro (0:03)
G|---------|
D|---------|
A|-----3---| << (x3)
E|-3-5---5-|

G|---------------------------------------|
D|---------------------------------------|
A|-----3---------------------------------|
E|-3-5---5-5-5-5-5-5-5-5-5-5-5-5-5-5-5-5-|

Chorus (0:16)
G|-------------------------------------------|
D|-------------------------------------------|
A|-3--3-3--3--------------------------3------|
E|-----------3--3-3--3-5--3-5--3-5-5-----3--5|

G|---------------------------------------|
D|---------------------------------------|
A|-3--3-3--3--------------------------3--|
E|-----------3--3-3--3-5--3-5--3-5-5-----|

Verse A (x12)
G|---------|
D|---------|
A|-----3---|
E|-3-5---5-|

Pre-Chorus
G|----------------------------------------|
D|-----------------5-7--5-7--5-7--5--7--9-|
A|------------3---------------------------|
E|--3-5--3-5----5-------------------------|

Repeat Chorus

Verse B ("I've been hoping..")
G|--------------------------------------------------------------------------|
D|--------------------------------------------------------------------------|
A|-----3--------------------------------------------------------------------|
E|-3-5----5-5--5---5-5--3---5-5--5---5-5--3---5-5--5---5-5--3---5-5--5--5-5-|

G|---------|
D|---------|
A|-----3---| << (x4)
E|-3-5---5-|

Repeat Pre-Chorus

Chorus Variation
G|-------------------------------------------|
D|-------------------------------------------|
A|-3--3-3--3--------------------------3------| << (x3)
E|-----------3--3-3--3-5--3-5--3-5-5-----3--5|

G|---------------------|
D|---------------------|
A|--------------3------|
E|--3-5--3-5-5-----3--5|

Bridge (Don't worry now..")
G|-----------------------------------|
D|-7-7---------------5-5--5---7-7--7-|
A|------7---7-7--7-------------------| << (x3)
E|-----------------------------------|

G|----5------------5-----5-----|
D|-7----5-7---5-7----5-7---7-5-|
A|-----------------------------| << (x2)
E|-----------------------------|

G|-------------------5-----|
D|-7--5-7--5-7---5-7---7-5-|
A|-------------------------| << (x3)
E|-------------------------|

G|------------------------|
D|-7--5-7--5-7---5--7--9--|
A|------------------------|
E|------------------------|

End Chorus
G|-------------------------------------------|
D|-------------------------------------------|
A|-3--3-3--3--------------------------3------| << (x3)
E|-----------3--3-3--3-5--3-5--3-5-5-----3--5|

G|-10-10-10-10-------------------------------------|
D|-------------10-10-10-10-------------------------|
A|-------------------------10-10-10-10-10-10-10-10-|
E|-------------------------------------------------|

G|-----------------------------------------------------|
D|-----------------------10----------------------------|
A|--12--10-12--10-12-12-----12---------------------3---|
E|------------------------------3-5--3-5--3-5--3-5---5-|

G|---------------------------|
D|---------------------------|
A|---------------------------|
E|-5--5--5--5--5--5--5~~~~5--|

guest