Oops, an error
Loading. Please wait.

Middle Of Nowhere intro tab

version 1
version 1

Intro

Whole song

6,497 views 3 this week
2 commentsread comments
1 2 3 4 5
x 5
add to favorites
×
Save as Personal and add changes to this tab that will be seen only by you. Learn more ›
×
You can save this tab as Personal to edit and correct it or add notes. All changes will be seen only by you. Learn more »
launch autoscroll
font size
0
reset
how to read this tab
guitar tuner
edit
Autoscroll
slow
fast
+/-
esc
set tempo
stop
Difficulty
Tabbed by Jessica Tolentino
this tab is pretty much perfect but it is played an octaive lower since its played 
on the piano.

hope you enjoy!

Intro:
e----------------------------------------------------------------------|
b---------------15----12-----------12--15-15--15--13-12----------------|
g------------11----14----14--14-14---------------------14--12----------|
d-----12--14-----------------------------------------------------------|
a--12------------------------------------------------------------------|
e----------------------------------------------------------------------|
Suggest correction
Creating personal tab
Creating personal tab
You can edit any tab online and save it as your Personal.

You can edit, replace or remove any tab part or add personal notes – all changes will be seen only by you.

Personal tabs can be accessed anytime from any device, even offline.
Learn more »
comments
print report bad tab
2 comments total.
0 reply
csensesfail92 30 Jun 09, 2010 05:49 PM

e|--------------------------------------------------------|
B|-------------15----12----------12----15-15-15-13-12-----|
G|----------11----14---14--14-14----14---------------14-12|
D|----12-14-----------------------------------------------|
A|-12-----------------------------------------------------|
E|--------------------------------------------------------|

I think that's the right way, or atleast it matches up with the song a little better

0 reply
csensesfail92 30 Jun 09, 2010 05:58 PM

or maybe take out one of the 14's on the G from the three 14's in a row?

guest
Wanna post a correction for this tab? Suggest correction