Oops, an error
Loading. Please wait.

Talk To Me Dance With Me Bass Tab

version 1
version 1

Whole song

Interactive

2,611 views 15 this week
1 commentread comment
1 2 3 4 5
x 5
add to favorites
launch autoscroll
font size
0
reset
guitar tuner
×
Best way to learn
"Talk To Me Dance With Me"
Autoscroll
slow
fast
+/-
esc
set tempo
stop
Song: Talk To Me, Dance With Me
Artist: Hot Hot Heat
Album:Make Up the Breakdown
Tuning: BEADG

G|----------|
D|----------|
A|--Guitar--| 
E|--Intro---|
B|----------| 

Riff A
G|-------------------------------------|
D|--------------------------------8----|
A|-6666-8-4-4444-6---------------------|
E|-----------------6-6666-4---666---6--|
B|--------------------------6----------|


Riff B
G|-------------------10h11h10----|
D|-4-4-4-44666-66888-------------|
A|------4-----6------------------|
E|-------------------------------|
B|-------------------------------|

Riff C
G|-------------------------------|
D|-4-4-4-44666-66888-8-88-8-88---|
A|------4-----6------------------|
E|-------------------------------|
B|-------------------------------|

Riff D
G|---------------------------------------|
D|---------------------------------------|
A|-6--8-4--6----------6--8-4--6-------4--|
E|-----------6--6-4-------------6--646-6-|
B|---------------------------------------|

Riff E
G|----------------------------------|
D|-4-4-4-4-6-6-6-6-8-8-8-8-8-8-6-6--|
A|----------------------------------|
E|----------------------------------|
B|----------------------------------|

*Song Order*
Guitar Intro
Riff A (2 times) With Autowah and overdrive
Riff B (4 times)
Riff A (1 time)
Riff E (2 times)
Riff A (5 times)
Riff C (1 time)
DRUMS ONLY
Riff D (2 times) with Autowah and overdrive
Riff A (3 times)
Riff C

 I think thats the whole song, i would first like to thank my friend Ana for
introducing me to this song and i would like to thank my other friend Smiley for
teaching me this song. Kool.
Suggest correction
comments
print report bad tab
1 comment total.
0 reply
Smurf_Pimp 10 Jan 26, 2004 07:00 PM

this is the best tab i've found on the net for this song so far, your only mistake is in Riff B
You have:
Riff B
G|-------------------10h11h10----|
D|-4-4-4-44666-66888-------------|
A|------4-----6------------------|
E|-------------------------------|
B|-------------------------------|
It should be:
Riff B
G|-------------------10h11h10-----1110|
D|-4-4-4-44666-66888----------888-----|
A|------4-----6-----------------------|
E|------------------------------------|
B|------------------------------------|
you just missed the last part

guest
You may want to rate the tab now too:
select rating
Wanna post a correction for this tab? Suggest correction