Oops, an error
Loading. Please wait.

At Natures Mercy bass

320 views 1 this week
no commentswrite comment
1 2 3 4 5
3 more votes to show rating
add to favorites
×
Save as Personal and add changes to this tab that will be seen only by you. Learn more ›
×
You can save this tab as Personal to edit and correct it or add notes. All changes will be seen only by you. Learn more »
launch autoscroll
font size
0
reset
guitar tuner
edit
Autoscroll
slow
fast
+/-
esc
set tempo
stop
Author
Difficulty
“At Nature’s Mercy” by Hot Rod Circuit

Tabbed by Greg Mitchell

Standard Tuning

This song is actually in Drop-D, it's tabbed so that you play
the low D notes on a higher D.


Come in right after the little guitar part with:
Verse:
G|-----------------------|
D|-----------------------|
A|-2-2-------------------| x6
E|-----2-2-0-3--3-5-5-3--|

Pre-chorus(“Think of all the trouble...”):
G|---------------------------------|
D|---------------------------------|
A|-2-2-2-2-2-2-2-0-3-3-3-3-3-5-3-0-|
E|---------------------------------|

Pre-chorus cont.
G|---------------------------------|
D|---------------------------------|
A|---------------------------------|
E|-3-3-3-3-3-5-3-0-2-2-2-2-2-2-2-2-|

Play whole pre-chorus x2

Chorus(“Never gonna leave your side...”):
G|--------------------------------------|
D|--------------------------------------|
A|-2-2-2-0-000-0-00-0-0-----------------|
E|----------------------3-33-333-333-33-|

cont.
G|--------------------------------|
D|--------------------------------|
A|-5-55-55------------------------|
E|---------2-22-22-3-33-333-33-33-|

Play whole chorus x3

(“Think of all the trouble that we get into...”):
G|---------------------------------------------------------------|
D|---------------------------------------------------------------|
A|-2-22-222-222-22-3-33-333-333-3h5------------------------------|
E|----------------------------------3-333-333-333-2-22-222-222-2-|
^Play that part x2

Play whole chorus x3
Play verse x6
Play whole pre-chorus x4

            
            
Suggest correction
Creating personal tab
Creating personal tab
You can edit any tab online and save it as your Personal.

You can edit, replace or remove any tab part or add personal notes – all changes will be seen only by you.

Personal tabs can be accessed anytime from any device, even offline.
Learn more »
Give kudos to tab author, rate the tab!
1 2 3 4 5
comments
print report bad tab
guest
You may want to rate the tab now too:
select rating
Wanna post a correction for this tab? Suggest correction