Oops, an error
Loading. Please wait.

Consumed By Laziness bass

147 views 1 this week
no commentswrite comment
1 2 3 4 5
3 more votes to show rating
add to favorites
×
Save as Personal and add changes to this tab that will be seen only by you. Learn more ›
×
You can save this tab as Personal to edit and correct it or add notes. All changes will be seen only by you. Learn more »
launch autoscroll
font size
0
reset
guitar tuner
edit
Autoscroll
slow
fast
+/-
esc
set tempo
stop
Author
Hot Rod Circuit – Consumed by laziness - sorry about tomorrow

Timing’s not perfect but I think most notes are about right
Note: E string is tuned down a full step to D
Any comments or corrections welcome
Please Rate!

~ = let ring
/ = slide up
\ = slide down

Intro: (0:04)

G|-------------------------------------|
D|-5554----45554577--9997---799979-----|
A|-----555---------79----999-----------|
D|--------------------------------7911-| (11 not two 1’s)

Verse: (0:12)

G|-----------------------------------|
D|-----------------------------------|
A|-----------------02220---022202----| 
D|-5554000455545774-----444------024-|

G|-----------------------------------|
D|-----------------------------------|
A|-----------------02220---022202----| 
D|-5554000455545774-----444------024-|

G|-----------------------------------|
D|------------------------------0-4--|
A|-----------------02220---02220-0-0-|
D|-5554000455545774-----444----------|


Chorus 1: (0:37)

G|-----------------------------------|
D|-----------------------------------|
A|-5555-5/7--------------------------|
D|----------7777777-55-555-555-55-77-|

G|---------------------|
D|---------------------|
A|-5555-7-9------------|
D|----------777-777-5~-|

Pause, then:

Intro (0:53)
Verse (1:02)

Then:

Chorus 2: (0:26)

G|---------------------------------|
D|---------------------------------|
A|-555555--------------------------|
D|--------7777777-55-555-555-55-77-|

G|----------------------------------|
D|----------------------------------|
A|-5555-79--------------------------|
D|---------7777777-55-555-555-55-77-|

G|----------------------------------|
D|----------------------------------|
A|-5555-79--------------------------|
D|---------7777777-55-555-555-55-77-|

G|---------------------------------|
D|---------------------------------|
A|-555555--------------------------|
D|--------7777777-55-555-555-55-77-|

Bridge: (2:00)

G|----------------------------------------------|
D|----------------------------------------------|
A|----------------------------------------------|  x4
D|-00-99-77-55-44-5000-1212-1111-99-77-55-97779-|

(12’s and 11’s not 1’s and 2’s)

Chorus 3: (2:32)

G|-------------------------------------|
D|--4----------------------------------|
A|-0-0-555555--------------------------|
D|------------7777777-55-555-555-55-77-|

G|----------------------------------|
D|----------------------------------|
A|-5555-79--------------------------|
D|---------777/9/7-55-555-555-55-77-|

G|------------------------------------|
D|------------------------------------|
A|-5555-79----------------------------|
D|---------777777777-55-555-555-55-77-|

G|--------------------|
D|--------------------|
A|-5555-79------------|
D|---------7777777-5~-|
 
End: (3:06)

G|----|
D|----|
A|-5~-|
D|----|

            
            
Suggest correction
Creating personal tab
Creating personal tab
You can edit any tab online and save it as your Personal.

You can edit, replace or remove any tab part or add personal notes – all changes will be seen only by you.

Personal tabs can be accessed anytime from any device, even offline.
Learn more »
Give kudos to tab author, rate the tab!
1 2 3 4 5
comments
print report bad tab
guest
You may want to rate the tab now too:
select rating
Wanna post a correction for this tab? Suggest correction