Oops, an error
Loading. Please wait.

Plenty For All Chords

70 views 6 this week
no commentswrite comment
1 2 3 4 5
3 more votes to show rating
add to favorites
launch autoscroll
font size
0
reset
transpose
0
reset
display chords
guitar tuner
Autoscroll
slow
fast
+/-
esc
set tempo
stop
Help us to improve Ultimate-Guitar.com Take our survey!
×
Author
Difficulty
novice
About this tab version
This version is extremely simplified to just strum and sing along to, with the tabs for the guitar lick in case it's wanted. Was this info helpful? Yes No
[Intro]
e|---|-7----------------|---------------------|
B|---|----8----10--7----|-10--8---10--7-------|
G|-0-|-------7--------7-|-------7--------7--0-|
D|---|------------------|---------------------|
A|---|------------------|---------------------|
E|---|------------------|---------------------|
x4

[Verse 1]
D
Give notice, give away
D
Your personal property
D
Your illusions killing you dead
D
You deserve peace of mind for yourself
G
Southern California
G
Let's go! 
G                   D
There's room for us all

[Chorus 1]
Bm
There ain't nothing for it
G
What else can you do
D
Nothing to work with nothing to lose
D
Nothing to work with nothing to lose
Bm
It is what it is
G
It ain't gonna improve
D
Nothing to work with nothing to lose
D
Nothing to work with nothing to lose
Bm
Take it or leave it
Bm G
Do both
G              D
Do both if you choose

[Bridge]
e|---|-7----------------|---------------------|
B|---|----8----10--7----|-10--8---10--7-------|
G|-0-|-------7--------7-|-------7--------7--0-|
D|---|------------------|---------------------|
A|---|------------------|---------------------|
E|---|------------------|---------------------|
x4

[Verse 2]
D
Your patrons/your guests
D
Manufactured phonies hung up on themselves
D
Bring 'em all with you It's all for the best
D
'Cause we got space out here in the west
G
Southern California
G
Let's go! 
G                   D
There's room for us all

[Chorus 1]
Bm
There ain't nothing for it
G
What else can you do
D
Nothing to work with nothing to lose
D
Nothing to work with nothing to lose
Bm
It is what it is
G
It ain't gonna improve
D
Nothing to work with nothing to lose
D
Nothing to work with nothing to lose
Bm
Take it or leave it
Bm G
Do both
G              D
Do both if you choose

[Bridge]
e|---|-7----------------|---------------------|
B|---|----8----10--7----|-10--8---10--7-------|
G|-0-|-------7--------7-|-------7--------7--0-|
D|---|------------------|---------------------|
A|---|------------------|---------------------|
E|---|------------------|---------------------|
x4

D
Suggest correction
Give kudos to tab author, rate the tab!
1 2 3 4 5
comments
print report bad tab
guest
You may want to rate the tab now too:
select rating
Wanna post a correction for this tab? Suggest correction