Oops, an error
Loading. Please wait.

Uncle Sam Blues Tab

version 2
version 2

Whole song

1,609 views 3 this week
no commentswrite comment
1 2 3 4 5
please rate
add to favorites
launch autoscroll
font size
0
reset
how to read this tab
guitar tuner
Tab Pro tools
  • play this tab
  • loop segment
  • change instrument
  • show fretboard
  • metronome
×
Best way to learn
"Uncle Sam Blues"
Autoscroll
slow
fast
+/-
esc
set tempo
stop
Contributor
Difficulty
advanced
(D shape on 9 fret, slide up to 8 and back to 9)(On electric version, just play G string)

    1 2 3  1 2 3  1 2 3  1 2 3  1 2 3  1 2 3  1 2 3  1 2 3  1 2 3  1 23   1 2 3  1 2 3  
e|--9-9-9--9-9-9--9-9-9--9-9-9--8-8-8--8-8-8--8-8-8--8-8-8--9-9-9--9-9-9--9-9-9--9-9-9--|
B|--101010-101010-101010-101010-101010-101010-101010-101010-101010-101010-101010-101010-|
G|--9-9-9--9-9-9--9-9-9--9-9-9--8-8-8--8-8-8--8-8-8--8-8-8--9-9-9--9-9-9--9-9-9--9-9-9--|
D|--------------------------------------------------------------------------------------|
A|--------------------------------------------------------------------------------------|
E|--------------------------------------------------------------------------------------|


e|----9-8-7-------------0--------------------------------5-3-2-0--|
B|------|-----1-----1---|--1----------1-3-1----3-----------|------|
G|------|-------22--|-2-|------0h2--2-|---|--2-|-----------|------|
D|------|-------|---|---|-------------|---|----|-------2---|------|
A|--0---0---0---0---0---0----0--------0---0----0-----0-----0------|
E|-----------------------------------------------0-3--------------|

e|---------------5-5-3---5--3---------------0-------------------------|
B|-1h2--1h2--------|---2-|----------0-----0-|-3-0--------1--1--1------|
G|----2----2-------|-----|------0h1---4-7---|-----4h2---2--2--2----0--|
D|-----------------|-----|----2-------|-----|---------0-----------0---|
A|-------------0--(2)----0------------|-----|-----------------------0-|
E|------------------------------------0-----0-------------------------|

e|----3-0----------------------------|
B|--5-----3po1--3--1-3----------xx---|
G|-------------2-------2po0-----xxx--|
D|--------------------------22--xxx--|
A|-----------------------------------|
E|-----------------------------------|

Verse:

   1 2 3 4  1 2 3 4  1 2 3 4  1 2 3 4  1 2 3 4  1 2 3 4  1 2 3 4  1 2 3 4
e|-------------------2-2-2-2--2-2-2-2---------------------------------------|
B|-2-2-2-2--2-2-2-2--3-3-3-3--3-3-3-3--2-2-2-2--2-2-2-2--2-2-2-2--2-2-2-2---|
G|-2-2-2-2--2-2-2-2--2-2-4-4--5-5-4-4--2-2-2-2--2-2-2-2--2-2-2-2--2-2-2-2---|
D|-2-2-4-4--5-5-4-4--0-0-0-0--0-0-0-0--2-2-4-4--5-5-4-4--2-2-4-4--5-5-4-4---|
A|-0-0-0-0--0-0-0-0--------------------0-0-0-0--0-0-0-0--0-0-0-0--0-0-0-0---|
E|--------------------------------------------------------------------------|
Got my questionnaire baby You know im headin off for war


   1 2 3 4  1 2 3 4  1 2 3 4  1 2 3 4  1 2 3  1 2 3  1 2 3  1 2 3 
e|-------------------2-2-2-2--2-2-2-2------------------------------|
B|-2-2-2-2--2-2-2-2--3-3-3-3--3-3-3-3--2-2-2--2-2-2--2-2-2--2-2-2--|
G|-2-2-2-2--2-2-2-2--2-2-4-4--5-5-4-4--2-2-2--2-2-2--2-2-2--2-2-2--|
D|-2-2-4-4--5-5-4-4--0-0-0-0--0-0-0-0--2-2-2--2-2-2--4-4-4--4-4-4--|
A|-0-0-0-0--0-0-0-0--------------------0-0-0--0-0-0--0-0-0--0-0-0--|
E|-----------------------------------------------------------------|
Got my questionnaire baby You know im headin off for war

   1 2 3 4  1 2 3 4  1 2 3 4  1 2 3 4
e|-3-3-3-3--3-3-3-3----------------------9-------8-------7-------------|
B|-0-0-0-0--0-0-0-0------------------------8-------7-------6---7-8-9W--|
G|-0-0-0-0--0-0-0-0--1-1-1-1--1-1-1-1--9-------8-------7-------7-8-9W--|
D|-0-0-0-0--0-0-0-0--2-2-2-2--2-2-2-2--------------------------7-8-9W--|
A|-2-2-2-2--2-2-2-2--2-2-2-2--2-2-2-2----------------------------------|
E|-3-3-3-3--3-3-3-3----------------------------------------------------|
 With 40000 guys in the service doin something they just don’t know what for

   1 2 3 4  1 2 3 4  1 2 3 4  1 2 3 4  1 2 3 4  1 2 3 4  Pm  Pm  Pm 
e|-------------------2-2-2-2--2-2-2-2--------------------999-999-999-999-|
B|-2-2-2-2--2-2-2-2--3-3-3-3--3-3-3-3--2-2-2-2--2-2-2-2------------------|
G|-2-2-2-2--2-2-2-2--2-2-4-4--5-5-4-4--2-2-2-2--2-2-2-2------------------|
D|-2-2-4-4--5-5-4-4--0-0-0-0--0-0-0-0--2-2-4-4--5-5-4-4------------------|
A|-0-0-0-0--0-0-0-0--------------------0-0-0-0--0-0-0-0------------------|
E|-----------------------------------------------------------------------|
Uncle Sam ain’t know woman but he sure can take your man

                                    Pm    Pm    
e|-------------------2-2-2-2--2-2-2-2------------------------------|
B|-2-2-2-2--2-2-2-2--3-3-3-3--3-3-3-3--2-2-2--2-2-2--2-2-2--2-2-2--|
G|-2-2-2-2--2-2-2-2--2-2-4-4--5-5-4-4--2-2-2--2-2-2--2-2-2--2-2-2--|
D|-2-2-4-4--5-5-4-4--0-0-0-0--0-0-0-0--2-2-2--2-2-2--4-4-4--4-4-4--|
A|-0-0-0-0--0-0-0-0--------------------0-0-0--0-0-0--0-0-0--0-0-0--|
E|-----------------------------------------------------------------|
I said Uncle Sam ain’t no woman but he sure can take your man

   1 2 3 4  1 2 3 4  1 2 3 4  1 2 3 4
e|-3-3-3-3--3-3-3-3----------------------9-------8-------7-------------|
B|-0-0-0-0--0-0-0-0------------------------8-------7-------6---7-8-9W--|
G|-0-0-0-0--0-0-0-0--1-1-1-1--1-1-1-1--9-------8-------7---------------|
D|-0-0-0-0--0-0-0-0--2-2-2-2--2-2-2-2----------------------------------|
A|-2-2-2-2--2-2-2-2--2-2-2-2--2-2-2-2----------------------------------|
E|-3-3-3-3--3-3-3-3----------------------------------------------------|
 With 40000 guys in the service doin something they don’t understand


    1 2 3  1 2 3  1 2 3  1 2 3  1 2 3  1 2 3  1 2 3  1 2 3  1 2 3  1 23   1 2 3  1 2 3  
e|----9---------------------------8-----------------------------------------------------|
B|--------------------------------------------------------------------------------------|
G|--9---9--9-9-9--9-9-9--9-9-9--8---8--8-8-8--8-8-8--8-8-8--9-9-9--9-9-9--9-9-9--9-9-9--|
D|--------------------------------------------------------------------------------------|
A|--------------------------------------------------------------------------------------|
E|--------------------------------------------------------------------------------------|

(Improv solo)



   1 2 3 4  1 2 3 4  1 2 3 4  1 2 3 4  1 2 3 4  1 2 3 4  1 2 3 4  1 2 3 4
e|-------------------2-2-2-2--2-2-2-2---------------------------------------|
B|-2-2-2-2--2-2-2-2--3-3-3-3--3-3-3-3--2-2-2-2--2-2-2-2--2-2-2-2--2-2-2-2---|
G|-2-2-2-2--2-2-2-2--2-2-4-4--5-5-4-4--2-2-2-2--2-2-2-2--2-2-2-2--2-2-2-2---|
D|-2-2-4-4--5-5-4-4--0-0-0-0--0-0-0-0--2-2-4-4--5-5-4-4--2-2-4-4--5-5-4-4---|
A|-0-0-0-0--0-0-0-0--------------------0-0-0-0--0-0-0-0--0-0-0-0--0-0-0-0---|
E|--------------------------------------------------------------------------|
I'm gonna do some fightin of that I can be sure 

   1 2 3 4  1 2 3 4  1 2 3 4  1 2 3 4  1 2 3 4  1 2 3 4  Pm  Pm  Pm 
e|-------------------2-2-2-2--2-2-2-2--------------------999-999-999-999-|
B|-2-2-2-2--2-2-2-2--3-3-3-3--3-3-3-3--2-2-2-2--2-2-2-2------------------|
G|-2-2-2-2--2-2-2-2--2-2-4-4--5-5-4-4--2-2-2-2--2-2-2-2------------------|
D|-2-2-4-4--5-5-4-4--0-0-0-0--0-0-0-0--2-2-4-4--5-5-4-4------------------|
A|-0-0-0-0--0-0-0-0--------------------0-0-0-0--0-0-0-0------------------|
E|-----------------------------------------------------------------------|
I'm gonna do some fightin of that I can be sure




 
  1 2 3 4  1 2 3 4  1 2 3 4  1 2 3 4
e|-3-3-3-3--3-3-3-3----------------------9-------8-------7-------------|
B|-0-0-0-0--0-0-0-0------------------------8-------7-------6---7-8-9W--|
G|-0-0-0-0--0-0-0-0--1-1-1-1--1-1-1-1--9-------8-------7---------------|
D|-0-0-0-0--0-0-0-0--2-2-2-2--2-2-2-2----------------------------------|
A|-2-2-2-2--2-2-2-2--2-2-2-2--2-2-2-2----------------------------------|
E|-3-3-3-3--3-3-3-3----------------------------------------------------|
 With 40000 guys in the service doin something they don’t understand

(improv solo)




                                    Pm    Pm    
e|-------------------2-2-2-2--2-2-2-2------------------------------|
B|-2-2-2-2--2-2-2-2--3-3-3-3--3-3-3-3--2-2-2--2-2-2--2-2-2--2-2-2--|
G|-2-2-2-2--2-2-2-2--2-2-4-4--5-5-4-4--2-2-2--2-2-2--2-2-2--2-2-2--|
D|-2-2-4-4--5-5-4-4--0-0-0-0--0-0-0-0--2-2-2--2-2-2--4-4-4--4-4-4--|
A|-0-0-0-0--0-0-0-0--------------------0-0-0--0-0-0--0-0-0--0-0-0--|
E|-----------------------------------------------------------------|
Got my questionnaire baby You know im headin off for war

                                    Pm    Pm    
e|-------------------2-2-2-2--2-2-2-2------------------------------|
B|-2-2-2-2--2-2-2-2--3-3-3-3--3-3-3-3--2-2-2--2-2-2--2-2-2--2-2-2--|
G|-2-2-2-2--2-2-2-2--2-2-4-4--5-5-4-4--2-2-2--2-2-2--2-2-2--2-2-2--|
D|-2-2-4-4--5-5-4-4--0-0-0-0--0-0-0-0--2-2-2--2-2-2--4-4-4--4-4-4--|
A|-0-0-0-0--0-0-0-0--------------------0-0-0--0-0-0--0-0-0--0-0-0--|
E|-----------------------------------------------------------------|
Got my questionnaire baby You know im headin off for war


   1 2 3 4  1 2 3 4  1 2 3 4  1 2 3 4
e|-3-3-3-3--3-3-3-3----------------------9-------8-------7--------------|
B|-0-0-0-0--0-0-0-0------------------------8-------7-------6--5s14w\----|
G|-0-0-0-0--0-0-0-0--1-1-1-1--1-1-1-1--9-------8-------7----------------|
D|-0-0-0-0--0-0-0-0--2-2-2-2--2-2-2-2-----------------------------------|
A|-2-2-2-2--2-2-2-2--2-2-2-2--2-2-2-2-----------------------------------|
E|-3-3-3-3--3-3-3-3-----------------------------------------------------|
 With 40000 guys in the service doin something they don’t understand
comments
We did not receive enough feedback on this tab! Please rate:
print report bad tab
1 2 3 4 5
I want to post or [tab]
guest
You may want to rate the tab now too:
select rating
Please do not post tabs as comments. Select "correction" instead!