Oops, an error
Loading. Please wait.

Drag My Body Bass Tab

version 1
version 1

Whole song

  • Improvement on chorus and different root notes for the verse.
4,870 views 6 this week
3 commentsread comments
1 2 3 4 5
x 6
add to favorites
launch autoscroll
font size
0
reset
guitar tuner
Autoscroll
slow
fast
+/-
esc
set tempo
stop
Help us to improve Ultimate-Guitar.com Take our survey!
×
Difficulty
novice
Drag my body - Hot water music
comments or corrections : manepton@hotmail.com

intro 
e----------------------------------|
d----------------------22----------|
a--4-44---4-44---4-44----4242------|
E-------0------0------0------------|

riff 1 
e------------------------------------------------|
d----------------------------------------22------|
a-4-44-4-------------2-22-0-2-22-0-2-22-2--4242--|
E-------5-55-5-0-00-0----------------------------|

riff2
e----------------------------------------------|
d--------------------------------------22------|
a-4-44-4-------------4-44-2-4-44-2-4-42--4242--|
E-------5-55-5-0-00-0--------------------------|

riff3 0:18
e----------------------------------6--------------|
d--------------------------------/7---------------|
a-4-44-4--------------4/7-4-2-0-------------------|
E-------5-55-5-0-00-0------------------------9/0--|

riff2 
e-----------------------------------------------|
d---------------------------------------22------|
a-4-44-4-------------4-44-2-4-44-2-4-442--4242--|
E-------5-55-5-0-00-0---------------------------|

riff 4
e-----------------------------------------------|
d---------------------------------------22---2--|
a-4-44-4-------------2-22-0-2-----2-22-2--424---|
E-------5-55-5-0-00-0--------0/12---------------|

riff 2
e-----------------------------------------------|
d---------------------------------------22------|
a-4-44-4-------------4-44-2-4-44-2-4-442--4242--|
E-------5-55-5-0-00-0---------------------------|  

riff 5 0:44
e----------------------------------6----------------4---|
d--------------------------------/7--------------2h4----|
a-4-44-4--------------4/7420---------7642---------------|
E-------5-55-5-0-00-0-----------------------------------|

Chorus 1 0:55
e--------------------------------------------|
d--------------------------------------------|
a--4-4-4-4-----------------------------------|  2 X
E-------7-7-5-5-5-575-0-0-0-040-7-7-7-474----|





pre-riff 2 1:07
e------------------------------
d-----------------------22-----
a--4-44-2-4-44-2--4-44-2--4242-
E------------------------------

damn fu?ack?!
e--------------------------4-????????-|
d------------------------24-4242-2----|
a--4-44-2--4-44-2--4-44-2-------4-404-| ? Help me please
E-------------------------------------|

riff 2 1:14
e-----------------------------------------------|
d---------------------------------------22------|
a-4-44-4-------------4-44-2-4-44-2-4-442--4242--|
E-------5-55-5-0-00-0---------------------------| 

riff 4
e-----------------------------------------------|
d---------------------------------------22---2--|
a-4-44-4-------------2-22-0-2-----2-22-2--424---|
E-------5-55-5-0-00-0--------0/12---------------|

riff 2
e-----------------------------------------------|
d---------------------------------------22------|
a-4-44-4-------------4-44-2-4-44-2-4-442--4242--|
E-------5-55-5-0-00-0---------------------------|

riff 5 1:32
e----------------------------------6----------------4---|
d--------------------------------/7--------------2h4----|
a-4-44-4--------------4/7420---------7642---------------|
E-------5-55-5-0-00-0-----------------------------------|

Chorus 1 1:43
e--------------------------------------------|
d--------------------------------------------|
a--4-4-4-4-----------------------------------|  2 X
E-------7-7-5-5-5-575-0-0-0-040-7-7-7-474----|

Chorus 2 1:56
e--------------------------------------|
d--------467-7-7-767-------6-9-9-9-76--|
a--4-4-4------------7-7-7-7-7--------7-| 
E-------7------------------------------|

Chorus 3 2:03
e--------------------------9--9h11---------------|
d--------467-7-7-767---9h11-11----9-11-9-11/13---|
a--4-4-4------------7-7--------------------------| 
E-------7----------------------------------------|





!punch 2:10
e--------------9--9h11---------------------------|
d----------9h11-11------------11-9-11/13-11-9----|
a-0!-0!-0!---------------------------------------|
E---------------------7!-7!-7!-------------------|

e-----------14---9--9-11-----------------------------|
d-----------14-11-11-------------/7-6---7-6----------|
a-0!-0!-0!--12------------------------7-----7--------|
E------------------------7!-7!-7!--------------------|

 2:24
e-----------------------------------------------------------------------|
d-----------------------------------------------------------------9999--|
a-0!-0!-0!-00000000-----------------0!-0!-0!-0000-----------------------|
E------------------7!-7!-7!-77777777-------------4444-7!-7!-7!7777------|

Chorus 1 2:37
e--------------------------------------------|
d--------------------------------------------|
a--4-4-4-4-----------------------------------|  2 X
E-------7-7-5-5-5-575-0-0-0-040-7-7-7-474----|

Chorus 2 2:51
e--------------------------------------|
d--------467-7-7-767-------6-9-9-9-76--|
a--4-4-4------------7-7-7-7-7--------7-| 
E-------7------------------------------|

Chorus 3
e--------------------------9--9h11---------------|
d--------467-7-7-767---9h11-11----9-11-9-11/13---|
a--4-4-4------------7-7--------------------------| 
E-------7----------------------------------------|

!punch
e------------------------|
d------------------------|
a-0!-0!-0!---------------|
E----------4-7!-7!-7!-0--|

60%

manepton@hotmail.com
Suggest correction
comments
print report bad tab
3 comments total.
0 reply
NamRorrim 34 Nov 18, 2014 09:46 PM

bridge 2nd riff (I think, sounds better than "damn fu?ack?!")
e--------------------2-42-------------|
d-----------------2h4-4--42---2-42----|
a--4-44-2--4-44-2----------2h4-4--42--|
E-------------------------------------|

+1 reply
NamRorrim 34 Dec 13, 2014 09:22 PM

bridge 2nd riff (I think, sounds better than "damn fu?ack?!")
e--------------------2-42-------------|
d-----------------2h4-4--42---2-42----|
a--4-44-2--4-44-2----------2h4-4--42--|
E-------------------------------------|

-2 reply
punk28 10 Jan 06, 2015 09:33 PM

Lack of accuracy. Clearly wrong. its just wrong i dunno but its making me write you a letter so **** it i dont know. words words words words

guest
You may want to rate the tab now too:
select rating
Wanna post a correction for this tab? Suggest correction