Oops, an error
Loading. Please wait.

Drag My Body Bass Tab

version 2
version 2

Whole song

  • Improvement on chorus and different root notes for the verse.
64 views 6 this week
no commentswrite comment
1 2 3 4 5
3 more votes to show rating
add to favorites
launch autoscroll
font size
0
reset
guitar tuner
Autoscroll
slow
fast
+/-
esc
set tempo
stop
Help us to improve Ultimate-Guitar.com Take our survey!
×
Author
Difficulty
intermediate
About this tab version
Improvement on chorus and different root notes for the verse. Was this info helpful? Yes No
Tabbed based on the LouBass09 cover, all credit goes to him. Listen carefully for the right strumming.
Link: www.youtube.com/watch?v=ohANCjrclxc

Open to sugestions!

[Intro/Verse]

         Riff 1                              Riff 2

G|-------------------------------|----------------------------------------------------|
D|----------------------2-2-0-2--|-------------------------------------------2-2-0-2--|
A|-4--4-2-4--4-2-4--4-2---------4|-4--4-4-0--0-0--------2--2-0-2--2-0-2--2-0---------2|
E|-------------------------------|---------------0--0-0-------------------------------|


                  Riff 3

G|----------------------------------------------------|
D|-------------------------------------------2-2-0-2--|
A|-4--4-4-0--0-0--------4--4-2-4--4-2-4--4-2---------4|
E|---------------0--0-0-------------------------------|


                  Riff 4

G|-----------------------------------2/6-6-----|
D|-----------------------------------------7---|
A|-4--4-4-0--0-0--------5/7-5-2-0--------------|
E|---------------0--0-0------------------------|


Riff 3 + Riff 2 + Riff 3

G|----------------------------------------------------|----------------------------------------------------|
D|-------------------------------------------2-2-0-2--|-------------------------------------------2-2-0-2--|
A|-4--4-4-0--0-0--------4--4-2-4--4-2-4--4-2---------4|-4--4-4-0--0-0--------2--2-0-2--2-0-2--2-0---------2|
E|---------------0--0-0-------------------------------|---------------0--0-0-------------------------------|

G|----------------------------------------------------|
D|-------------------------------------------2-2-0-2--|
A|-4--4-4-0--0-0--------4--4-2-4--4-2-4--4-2---------4|
E|---------------0--0-0-------------------------------|


                  Riff 4 Plus

G|-----------------------------------2/6-6-----------------|
D|-----------------------------------------7-7-------------|
A|-4--4-4-0--0-0--------5/7-5-2-0--------------7-4-2---/14-|
E|---------------0--0-0------------------------------------|


[Chorus]

          Basic Chorus

G|------------------------------------------------------------|
D|------------------------------------------------------------|
A|--4--4--4-4-4-4--0--0--0-0-0-0------------0----2--2--2-2---2| x2
E|--------------------------------0--0--0-0---4------------4--|

[Verse]

         Riff 1

G|-------------------------------|
D|----------------------2-2-0-2--|
A|-4--4-2-4--4-2-4--4-2---------4|
E|-------------------------------|

        Fill

G|--------------------------2---4-2--------------------|
D|----------------------2-4---4-----4-2-----2---4-2----|
A|-4--4-2-4--4-2-4--4-2-----------------2-4---4-----4-2|
E|-----------------------------------------------------|


    Riff 3 + Riff 2 + Riff 3 + Riff 4 Plus                                     Variation

G|----------------------------------------------------|----------------------------------------------------|
D|-------------------------------------------2-2-0-2--|-------------------------------------------2-2---2--|
A|-4--4-4-0--0-0--------4--4-2-4--4-2-4--4-2---------4|-4--4-4-0--0-0--------2--2-0-2--2-0-2--2-0-----0---2|
E|---------------0--0-0-------------------------------|---------------0--0-0-------------------------------|

G|----------------------------------------------------|
D|-------------------------------------------2-2-0-2--|
A|-4--4-4-0--0-0--------4--4-2-4--4-2-4--4-2---------4|
E|---------------0--0-0-------------------------------|

G|-----------------------------------2/6-6-----------------|
D|-----------------------------------------7-7-------------|
A|-4--4-4-0--0-0--------5/7-5-2-0--------------7-4-2---/14-|
E|---------------0--0-0------------------------------------|
[Chorus]

          Basic Chorus


G|------------------------------------------------------------|
D|------------------------------------------------------------|
A|--4--4--4-4-4-4--0--0--0-0-0-0------------0----2--2--2-2---2|
E|--------------------------------0--0--0-0---4------------4--|


G|--------------------------------------------------------------|
D|--------4-5-6-7--7--7--7-7-6-4------------6-7-9--9--9--9-9----|
A|--4--4--------------------------7--7--7-7------------------7-6| x2
E|--------------------------------------------------------------|

[Bridge]

G|----------------------------------------------------------------------------------13---------|
D|-------------------14----14/16-----------------9-9----9-11/13-11-9----------------14-14-14/16|
A|-0!-0!-0!----14h16----16----------2!-2!-2!---------11-----------------0!-0!-0!---------------|
E|---------------------------------------------------------------------------------------------|


G|----------------------------------------------------------|
D|-------------6/7-6---6h7-6--------------------------------|
A|-2!-2!-2!----------9-------9----0!-0!-0!--0-0-0-0-0-0-0-0-|
E|----------------------------------------------------------|

G|--------------------------------------------------------------------------------------|
D|-----------------------------------------------------------------------9-9-9-9-9-9-9-9|
A|-2!-2!-2!--2-2-2-2-2-2-2-2--0!-0!-0!--0-0-0-0-0-0-0-0-2-2-2-2-2-2-2-2/7---------------|
E|--------------------------------------------------------------------------------------|


[Chorus]

          Basic Chorus

G|------------------------------------------------------------|
D|------------------------------------------------------------|
A|--4--4--4-4-4-4--0--0--0-0-0-0------------0----2--2--2-2---2| x2
E|--------------------------------0--0--0-0---4------------4--|


G|-----------------------6-7-8-9--9--9--9-9-7-6------------------|
D|--------4-5-6-7--7--7--------------------------9--9--9-9-7-6---|
A|--4--4-------------------------------------------------------9/|
E|---------------------------------------------------------------|


G|---------------------------------------------------------9-9-9--------------------9---|
D|--------4-5-6-7--7--7--7-7-6-4---------------------------7-7-7--------------------7---|
A|--4--4--------------------------7--7--7-7-5-4------------0-0-0---0----2!-2!-2!----0---|
E|-----------------------------------------------7--7--7-7------------------------------|



/ - slide
! - accent
Suggest correction
Give kudos to tab author, rate the tab!
1 2 3 4 5
comments
print report bad tab
guest
You may want to rate the tab now too:
select rating
Wanna post a correction for this tab? Suggest correction