Oops, an error
Loading. Please wait.

Bongga Ka Day Bass Tab

5,297 views 1 this week
no commentswrite comment
1 2 3 4 5
please rate
add to favorites
launch autoscroll
font size
0
reset
guitar tuner
Tab Pro tools
  • play this tab
  • loop segment
  • change instrument
  • show fretboard
  • metronome
×
Best way to learn
"Bongga Ka Day"
Autoscroll
slow
fast
+/-
esc
set tempo
stop
Contributor
Intro: Rest 4 bars, then . . .	

G|---|--------|---|--------|---|--------|---|---|
D|---|--------|---|--------|---|--------|---|---|
A|---|-----7\-|---|-----7\-|---|-----5\-|---|---|
E|-5-|--------|-2-|--------|-3-|--------|-5-|---| 2x

Pre-Verse I:

  (hala, hala . . .)
G|----------|---11-------11-|---7-x6--|---------|
D|-----9-10-|-11------------|-x7----7-|---------|
A|----------|--------9-11---|---------|-----4---|
E|-5--------|---------------|---------|-5-7---5-| 2x

Verse I:

  (Lahat ay nagulat . . .)
G|----------|---11-------11-|---7-x6--|---------|
D|-----9-10-|-11------------|-x7----7-|---------|
A|----------|--------9-11---|---------|-----4---|
E|-5--------|---------------|---------|-5-7---5-| 

G|----------|---11-------11-|---7-x6--|---|-------------|---------/9-|
D|-----9-10-|-11------------|-x7----7-|---|-------------|------------|
A|----------|--------9-11---|---------|---|-77-55-77-55-|-77-55-77---|
E|-5--------|---------------|---------|-0-|-------------|------------|

Chorus:

  (Bongga ka, day . . .)
G|-----------|----------|--------------|-----------|
D|-----------|----------|--------------|-----------|
A|----79-799-|-9-79-799-|-10-910-91010-|---5-4-----|
E|-5---------|----------|--------------|-5-----7-5-| 2x

Pre-Verse II:  Repeat Pre-Verse I pattern, but once only

Verse II: Repeat Verse I pattern

Chorus: Repeat Chorus pattern

Pre-Verse III:  Repeat Pre-Verse I pattern, but once only

Verse III: Repeat Verse I pattern

Chorus: Transpose 1 semi-note

  (Bongga ka, day . . .)
G|--------------|--------------|----------------|-----------|
D|--------------|--------------|----------------|-----------|
A|----810-81010-|-10-810-81010-|-11-1011-101111-|---6-5-----|
E|-6------------|--------------|----------------|-6-----8-6-| 11x to fade

Note: Chorus sometimes played as:

  (Bongga ka, day . . .)
G|--------------|--------------|----------------|----------|
D|--------------|--------------|----------------|----------|
A|----810-81010-|-10-810-81010-|-11-1011-101111-|----------|
E|-6------------|--------------|----------------|-x665-8-6-|
comments
We did not receive enough feedback on this tab! Please rate:
print report bad tab
1 2 3 4 5
I want to post or [tab]
guest
You may want to rate the tab now too:
select rating
Please do not post tabs as comments. Select "correction" instead!