Oops, an error
Loading. Please wait.

My Love Is A Stapler chords

709 views 3 this week
no commentswrite comment
1 2 3 4 5
1 last vote to show rating
add to favorites
×
Save as Personal and add changes to this tab that will be seen only by you. Learn more ›
×
You can save this tab as Personal to edit and correct it or add notes. All changes will be seen only by you. Learn more »
launch autoscroll
font size
0
reset
transpose
0
reset
simplify chords
display chords
guitar tuner
edit
Autoscroll
slow
fast
+/-
esc
set tempo
stop
Author
Difficulty
Strumming
There is no strumming pattern for this song yet. and get +5 IQ
(Please listen to the song in order to play the strumming pattern, I usually play "d--D-d,u,d,u,d-D", capital letters representing accented strums
however the strumming pattern varies throughout the song. This song can be a bit tricky to play but once you get the hang of it it's a very fun song
to play. Enjoy and please rate! :D)

Intro:

   Bb                      F                            Bb                  C
e|--------10------------------------------------------------10------------------------------------|
B|-/13--------13-11-10-----10h11-10----------13-13v-----13v-----13-11-10--------------11-10-------|
G|--------------------12-------------------------------------------------12-12-10-----------10-12-|
D|----------------------------------10v----10-----------------------------------------------------|
A|------------------------------------------------------------------------------------------------|
E|------------------------------------------------------------------------------------------------|



F           
nande nan daro
              C         A7
ki ni naru yoru kimi he no
         Dm        C
kono omoibinsen ni ne
Bb          C
kai te miru yo

F
moshikashite
            C         A7
kimagure kamo shire nai
            Dm       C
sore nanoni maisuu dake
Bb         C
fuete yuku yo

          Bb        C        A7      D7
suki no kakuritsu waridasu keisan shiki
   Bb       C  
areba ii no ni

       F             Am     
KIRA KIRA hikaru negaigoto mo
        Dm             C
GUCHA GUCHA e taru nayamigoto mo
Bb          F/A      Gm     C       
souda HOCCHIKISU de toji chao
      F              C       A7/C#
hajimari dake ha karui nori de
       Dm            Eb/b5
shiranai uchi ni atsuku natte
Gm            F/A      Bb      C
mou hari ga nanda ka toora nai

LALA mata ashita

Interlude:

Bb C - Am Dm - Gm C - F  G   Ab  A
Bb C - Dm G  - Gm -      C C C C C C

F          
doushiyo kana
           C         A7
yomi kaesu no hazukashii
            Dm        C
are kore to binsen ni ne
Bb          C
kai ta kuse ni

F
kimochi goto
           C            A7
gomibako yuki ja nanda ka
              Dm        C
kono mune ga setsunai kara
Bb          C
motte yo kanna

         Bb        C        A7        D7
ima no kimochi wo arawasu jisho nimo nai
    Bb        C
kotoba sagasu yo


       F             Am      
WAKU WAKU shichau keikaku to ka
       Dm            C
GUDA GUDA sugiru tenkai to ka
Bb          F/A      Gm     C 
zenbu HOCCHIKISU de toji chao
      F              C       A7/C#
kyou no dekigoto omoidashite
       Dm             Eb/b5
itsumo kokoro ga KYUN to datte
Gm           F/A       Bb      C
mou hari ga nai kara kawanakucha
                -
LALA mata ashita

Bridge:

Eb - Dm - C# - C



   Bb                      F                          Bb                    C
e|--------10-------------------------------------------------10------------------------------------|
B|-/13--------13-11-10-----10h11-10-----------13-13------13------13-11-10--------------11p10-------|
G|--------------------12--------------------------------------------------12-12-11-----------10-12-|
D|----------------------------------10-----10------------------------------------------------------|
A|-------------------------------------------------------------------------------------------------|
E|-------------------------------------------------------------------------------------------------|


(no guitar)
         
KIRA KIRA hikaru negaigoto mo
       
GUCHA GUCHA e taru nayamigoto mo
Bb          F/A      Gm     C       
souda HOCCHIKISU de toji chao
      F              C       A7/C#
hajimari dake ha karui nori de
       Dm            Eb/b5
shiranai uchi ni atsuku natte
Gm            F/A      Bb      C
mou hari ga nanda ka toora nai
                
LALA mata ashita

Outro:
Bb C - Am Dm - Gm - C - F - - F

            
            
Suggest correction
Creating personal tab
Creating personal tab
You can edit any tab online and save it as your Personal.

You can edit, replace or remove any tab part or add personal notes – all changes will be seen only by you.

Personal tabs can be accessed anytime from any device, even offline.
Learn more »
Give kudos to tab author, rate the tab!
1 2 3 4 5
comments
print report bad tab
guest
You may want to rate the tab now too:
select rating
Wanna post a correction for this tab? Suggest correction