Oops, an error
Loading. Please wait.

Darlin tab

2,470 views 66 this week
1 commentread comment
1 2 3 4 5
x 6
add to favorites
×
Save as Personal and add changes to this tab that will be seen only by you. Learn more ›
×
You can save this tab as Personal to edit and correct it or add notes. All changes will be seen only by you. Learn more »
launch autoscroll
font size
0
reset
how to read this tab
guitar tuner
edit
Autoscroll
slow
fast
+/-
esc
set tempo
stop
Author
[Intro]

(You can play the open E and A strings with the fretted notes as you see fit, adds depth)

    E                                                                     A
e|---------------------------------------------------------------------x---------------------------------|
B|---------------------------------------------------------------------x--5---5-5~-----5---5-5~/7--------|
G|---------------------------------------------------------------------x--6---6-6~-----6---6-6~/8--------|
D|--------9~----9h11--9~-------------9~----9h11--9~--------------------x--7---7-7~-----7---7-7~/9--------|
A|--9h11--0--11----------------9h11-----11---------------11--9--7------x---------------------------------|
E|--0--------------------------0-------------------------0---0--0------x---------------------------------|

    E                                                                         A
e|-------------------------------------------------------------------------x------------x----------------|
B|-------------------------------------------------------------------------x--5---5-5~--x--5---5-5h7-5---|
G|-------------------------------------------------------------------------x--6---6-6~--x--6---6-----6---|
D|--------9~----9h11--9~-------------9~----9h11--9h11--9h11p9--------------x--7---7-7~--x--7---7-----7---|
A|--9h11--0--11----------------9h11-----11---------------------11--9--7----x------------x----------------|
E|--0--------------------------0-------------------------------0---0--0----x------------x----------------|


[Verse]

    E                                                                     A
e|-------------------------------------------------------------------------------------------------------|
B|---------------------------------------------------------------------5---5-5~-----5---5-5-5h7-5--------|
G|---------------------------------------------------------------------6---6-6~-----6---6-6-6---6--(6\4)-|
D|--------9~----9h11-----------------9~----9h11---9--------------------7---7-7~-----7---7-7-----7--------|
A|--9h11--0--11----------------9h11-----11---------------11--9--7----------------------------------------|
E|--0--------------------------0-------------------------0---0--0----------------------------------------|

Well, I ain't got
A kiss left to give you
Cuz you weren't good to me
And I ain't got
No news left to feed you
Cuz you weren't good to me


[Pre-Chorus]

    E      F#m      E      F#m     B      E          strum E Chord
e|---------------------------------7------x--------0------------------------------------|
B|---------------------------------7------x--------0------------------------------------|
G|-(1)------2------(1)------2------8------x--------1------------------------------------|
D|-(2)------4------(2)------4------9------x--------2------------------------------------|
A|-(2)------4------(2)------4------9------x--------2------------------------------------|
E|--0-------2-------0-------2------7------x----0---0------------------------------------|

It's cold
It's dark,
It's deep and it's wet
And you ain't gonna make it
If you don't let someone in


[Chorus]

   B                                                      A strum  B strum             E
e|--------------------------------------------------------0--------0-------0--0--0--x--0--|
B|--------------------------------------------------------5--------7-------7--6--5--x--0--|
G|--------------------------------------------------------6--------8-------8--7--6--x--1--|
D|-4h6--4~--4h6--4~--4h6--4~---4h6--6~--6~--6~--4---------7--------9-------9--8--7--x--2--|
A|-0--------0--------0---------0-------------------7--4-----------------------------x--2--|
E|----------------------------------------------------------------------------------x--0--|

Darlin'
Darlin'
Darlin'
Why don't you sleep at night?
The colder the heart
The warmer the gun


[Verse]

    E                                                                     A
e|-------------------------------------------------------------------------------------------------------|
B|---------------------------------------------------------------------5---5-5~-----5---5-5-5h7-5--------|
G|---------------------------------------------------------------------6---6-6~-----6---6-6-6---6--(6\4)-|
D|--------9~----9h11-----------------9~----9h11---9--------------------7---7-7~-----7---7-7-----7--------|
A|--9h11--0--11----------------9h11-----11---------------11--9--7----------------------------------------|
E|--0--------------------------0-------------------------0---0--0----------------------------------------|

Shotgun Alynda
Bring me your eyes
For I wish to see like you
You're looking froze
And weathered, my dear
And your lips and your cheeks
Are turning blue


[Pre-Chorus]

    E      F#m      E      F#m     B      E          strum E Chord
e|---------------------------------7------x--------0------------------------------------|
B|---------------------------------7------x--------0------------------------------------|
G|-(1)------2------(1)------2------8------x--------1------------------------------------|
D|-(2)------4------(2)------4------9------x--------2------------------------------------|
A|-(2)------4------(2)------4------9------x--------2------------------------------------|
E|--0-------2-------0-------2------7------x----0---0------------------------------------|

It's cold
It's dark,
It's deep and it's wet
And you ain't gonna make it
If you don't let someone in


[Chorus]

   B                                                      A strum  B strum             E
e|--------------------------------------------------------0--------0-------0--0--0--x--0--|
B|--------------------------------------------------------5--------7-------7--6--5--x--0--|
G|--------------------------------------------------------6--------8-------8--7--6--x--1--|
D|-4h6--4~--4h6--4~--4h6--4~---4h6--6~--6~--6~--4---------7--------9-------9--8--7--x--2--|
A|-0--------0--------0---------0-------------------7--4-----------------------------x--2--|
E|----------------------------------------------------------------------------------x--0--|

Darlin'
Darlin'
Darlin'
Why don't you sleep at night?
The colder the heart
The warmer the gun


[Solo]

(Not exact but somewhat close to how Matt played it in Omaha at the link above)

e|--------------------------------------------------------------------------------------------|
B|--0--0---11--8------------------------------------------------------------------------------|
G|--1--1---------11b12--9h11p9-----------------9----9h11b12--9h11p9---------------------------|
D|--2--0------------------------11~-------9h11---11-----------------9-11-9--------------------|
A|--2--2-----------------------------9h11------------------------------------9h11-------------|
E|--0--0--------------------------------------------------------------------------9h11/14-----|

e|----------------------------------------------------------------------------------------------------|
B|----------------------------------------------------------------------------------------------------|
G|----------------------------------------------14-----14-----14--------------------------------------|
D|------------------14--------------14----------14h68--14h68--14h16--16p14----------------------------|
A|------------14h16-----14~--14h16-----14~---------------------------------16p14-------14-------14-16-|
E|--14\(0)-----------------------------------------------------------------------14h16----14h16-------|

e|-------------------------------------------------12h14-12--0---------|
B|-------------------------------------------------12----12--0---------|
G|-----------------------------------------------------------1---------|
D|-----------------------------------------------------------2---------|
A|-----------------------------------------------------------2---------|
E|-----------------------------------------------------------0---------|

e|-----------------------------------------------------------12h14-12--0---------|
B|-------------------------17-19b-19--17--19-17--17-----17---12----12--0---------|
G|---------------------------------------------------18----------------1---------|
D|---------------------------------------------------------------------2---------|
A|---------------------------------------------------------------------2---------|
E|---------------------------------------------------------------------0---------|



************************************

| x    Dead note
| (n)  Ghost note
| h    Hammer-on
| p    Pull-off
| b    Bend
| /    Slide up
| \    Slide down
| ~    Vibrato

************************************

            
            
Suggest correction
Creating personal tab
Creating personal tab
You can edit any tab online and save it as your Personal.

You can edit, replace or remove any tab part or add personal notes – all changes will be seen only by you.

Personal tabs can be accessed anytime from any device, even offline.
Learn more »
comments
print report bad tab
1 comment total.
0 reply
pmclaurin 57 Jul 18, 2016 10:07 AM

Looks good, I don't see a link to the live in Omaha video though. This is not the original key either. Still 5 stars though!

guest
You may want to rate the tab now too:
select rating
Wanna post a correction for this tab? Suggest correction