Oops, an error
Loading. Please wait.

For No One tab

2,476 views 30 this week
1 commentread comment
1 2 3 4 5
x 8
add to favorites
×
Save as Personal and add changes to this tab that will be seen only by you. Learn more ›
×
You can save this tab as Personal to edit and correct it or add notes. All changes will be seen only by you. Learn more »
launch autoscroll
font size
0
reset
how to read this tab
guitar tuner
edit
Autoscroll
slow
fast
+/-
esc
set tempo
stop
-------------------------------------------------------------------------------
                             SONG NAME - Band Name
-------------------------------------------------------------------------------
Tabbed by: Tim
E-mail: tsfisher6640@yahoo.com

This tab is based on the live version of the song:
https://www.youtube.com/watch?v=RtBZ8OlU7nY
It's similar to this cover, but the cover isn't exactly right:
https://www.youtube.com/watch?v=M3XT05PmZ8A

I've never made a tab before, this will just tell you what to do with your fingers
and you can figure out the rest! Watch the live version and it'll all make sense. If
you can't get it, comment and I'll add more info
Tuning: Half step down AND drop D
Capo 2

Verse: This repeats for every line.
e|---------h2-------------------------------------3------3-----3-------3-----|
B|--3------3--------3-------3------3------3-------3------3-----3-------3--3--|
G|--2------2--------2-------2------------------------------------------------|
D|--------------------------4------2-----------------------------------------|
A|------------------------------------------------h2-----2-----h2------2--4--|
D|---------------------------------------------------------------------------|
   Hey that's ...........acid     to    kick      in

Chorus: Repeats for every line
e|-------------------------------------------------------------------------------|
B|-------------------------------------------------3-----------------------------|
G|-------------------------------------------------2-----------------------------|
D|--5--------------2-------------------------------------------------------------|
A|--5--------------2-------------------------------------------------------------|
E|--5--------------2-------------------------------------------------------------|
    Old man ..the  sea  [STOP] Doin what you were born to

Little riff he does after the first chorus
e|--------------------------------------------------------------------------------------|
B|--------------------------------------------------------------------------------------|
G|----4----2----------------------------------------------------------------------------|
D|--------------4----2---0----2---4----2----0-------------------------------------------|
A|--------------------------------------------2-----------------------------------------|
E|--------------------------------------------------------------------------------------|
Suggest correction
Creating personal tab
Creating personal tab
You can edit any tab online and save it as your Personal.

You can edit, replace or remove any tab part or add personal notes – all changes will be seen only by you.

Personal tabs can be accessed anytime from any device, even offline.
Learn more »
comments
print report bad tab
1 comment total.
0 reply
lferguson27 10 Nov 04, 2015 03:00 PM, edited on November 5 2015, 03:53 am

Best version I've seen, sounds great even over the studio version great job, side note for people who don't want to tune down half a step, just tune to standard drop D and put a capo on the 1st fret

guest
You may want to rate the tab now too:
select rating
Wanna post a correction for this tab? Suggest correction